ISO-10303-21;
HEADER;
FILE_DESCRIPTION (( 'STEP AP203' ),
    '1' );
FILE_NAME ('290.step',
    '2021-09-03T07:21:48',
    ( '' ),
    ( '' ),
    'SwSTEP 2.0',
    'SolidWorks 2019',
    '' );
FILE_SCHEMA (( 'CONFIG_CONTROL_DESIGN' ));
ENDSEC;

DATA;
#1 = VERTEX_POINT ( 'NONE', #134 ) ;
#2 = CALENDAR_DATE ( 2021, 3, 9 ) ;
#3 = AXIS2_PLACEMENT_3D ( 'NONE', #296, #71, #173 ) ;
#4 = CARTESIAN_POINT ( 'NONE',  ( 2.637319834559011823E-14, -1.649999999999995470, 14.00000000000000000 ) ) ;
#5 = APPROVAL ( #223, 'UNSPECIFIED' ) ;
#6 = VERTEX_POINT ( 'NONE', #162 ) ;
#7 = DIRECTION ( 'NONE',  ( -4.668921077302412293E-31, -1.000000000000000000, -1.314184451497587422E-16 ) ) ;
#8 = ADVANCED_FACE ( 'NONE', ( #31 ), #169, .T. ) ;
#9 = EDGE_LOOP ( 'NONE', ( #288, #155, #209, #260 ) ) ;
#10 = PERSON_AND_ORGANIZATION ( #231, #328 ) ;
#11 = ORIENTED_EDGE ( 'NONE', *, *, #200, .T. ) ;
#12 = COORDINATED_UNIVERSAL_TIME_OFFSET ( 1, 0, .AHEAD. ) ;
#13 = AXIS2_PLACEMENT_3D ( 'NONE', #89, #194, #216 ) ;
#14 = DIRECTION ( 'NONE',  ( -3.491481338843133355E-15, 1.224646799147353207E-16, -1.000000000000000000 ) ) ;
#15 = DATE_AND_TIME ( #114, #92 ) ;
#16 = LINE ( 'NONE', #84, #222 ) ;
#17 = DIRECTION ( 'NONE',  ( 4.275831445896958607E-31, 1.000000000000000000, 1.224646799147353207E-16 ) ) ;
#18 = CARTESIAN_POINT ( 'NONE',  ( 2.020667218593117471E-16, -1.649999999999993028, -2.020667218593131029E-16 ) ) ;
#19 = AXIS2_PLACEMENT_3D ( 'NONE', #166, #141, #110 ) ;
#20 = DIRECTION ( 'NONE',  ( 0.0000000000000000000, 1.000000000000000000, 0.0000000000000000000 ) ) ;
#21 = DATE_AND_TIME ( #189, #293 ) ;
#22 = VECTOR ( 'NONE', #321, 1000.000000000000000 ) ;
#23 = VERTEX_POINT ( 'NONE', #246 ) ;
#24 = COORDINATED_UNIVERSAL_TIME_OFFSET ( 1, 0, .AHEAD. ) ;
#25 = CARTESIAN_POINT ( 'NONE',  ( 1.094854326276493391E-13, -1.649999999999995470, 14.00000000000000000 ) ) ;
#26 =( GEOMETRIC_REPRESENTATION_CONTEXT ( 3 ) GLOBAL_UNCERTAINTY_ASSIGNED_CONTEXT ( ( #291 ) ) GLOBAL_UNIT_ASSIGNED_CONTEXT ( ( #212, #265, #135 ) ) REPRESENTATION_CONTEXT ( 'NONE', 'WORKASPACE' ) );
#27 = PERSON_AND_ORGANIZATION ( #231, #328 ) ;
#28 = ORIENTED_EDGE ( 'NONE', *, *, #72, .T. ) ;
#29 = ORIENTED_EDGE ( 'NONE', *, *, #105, .T. ) ;
#30 = ORIENTED_EDGE ( 'NONE', *, *, #228, .F. ) ;
#31 = FACE_OUTER_BOUND ( 'NONE', #9, .T. ) ;
#32 = DIRECTION ( 'NONE',  ( 3.491481338843133355E-15, -1.224646799147353207E-16, 1.000000000000000000 ) ) ;
#33 = EDGE_CURVE ( 'NONE', #236, #6, #299, .T. ) ;
#34 = ADVANCED_BREP_SHAPE_REPRESENTATION ( '290', ( #170, #52, #53 ), #26 ) ;
#35 = DIRECTION ( 'NONE',  ( 4.275831445896958607E-31, 1.000000000000000000, 1.224646799147353207E-16 ) ) ;
#36 = CARTESIAN_POINT ( 'NONE',  ( 4.888073874380386697E-14, -1.714505518806294638E-15, 14.00000000000000000 ) ) ;
#37 = CIRCLE ( 'NONE', #177, 1.649999999999993694 ) ;
#38 = CARTESIAN_POINT ( 'NONE',  ( 1.705618631214212750E-13, -1.250000000000004219, 49.00000000000000000 ) ) ;
#39 = DIRECTION ( 'NONE',  ( 4.668921077302412293E-31, 1.000000000000000000, 1.314184451497587422E-16 ) ) ;
#40 = APPROVAL_DATE_TIME ( #21, #5 ) ;
#41 = EDGE_CURVE ( 'NONE', #6, #186, #215, .T. ) ;
#42 = DIRECTION ( 'NONE',  ( -3.491481338843133355E-15, 1.224646799147353207E-16, -1.000000000000000000 ) ) ;
#43 = DIRECTION ( 'NONE',  ( -3.491481338843133355E-15, 1.224646799147353207E-16, -1.000000000000000000 ) ) ;
#44 = SHAPE_DEFINITION_REPRESENTATION ( #132, #34 ) ;
#45 = CC_DESIGN_APPROVAL ( #208, ( #164 ) ) ;
#46 = CARTESIAN_POINT ( 'NONE',  ( 0.0000000000000000000, 0.0000000000000000000, 0.0000000000000000000 ) ) ;
#47 = FACE_OUTER_BOUND ( 'NONE', #144, .T. ) ;
#48 = AXIS2_PLACEMENT_3D ( 'NONE', #157, #258, #178 ) ;
#49 = DIRECTION ( 'NONE',  ( -4.668921077302412293E-31, -1.000000000000000000, -1.314184451497587422E-16 ) ) ;
#50 = ORIENTED_EDGE ( 'NONE', *, *, #228, .T. ) ;
#51 = DIRECTION ( 'NONE',  ( 4.275831445896958607E-31, 1.000000000000000000, 1.224646799147353207E-16 ) ) ;
#52 = MANIFOLD_SOLID_BREP ( 'Corps-Déplacer/Copier1[2]', #138 ) ;
#53 = AXIS2_PLACEMENT_3D ( 'NONE', #46, #226, #165 ) ;
#54 = CARTESIAN_POINT ( 'NONE',  ( 4.888073874380386697E-14, -1.714505518806294638E-15, 14.00000000000000000 ) ) ;
#55 = ORIENTED_EDGE ( 'NONE', *, *, #117, .F. ) ;
#56 = FACE_OUTER_BOUND ( 'NONE', #317, .T. ) ;
#57 = APPROVAL_DATE_TIME ( #287, #290 ) ;
#58 = CARTESIAN_POINT ( 'NONE',  ( 3.461524503657779466E-15, -1.649999999999992362, 0.9914200213954802443 ) ) ;
#59 = EDGE_LOOP ( 'NONE', ( #63, #128 ) ) ;
#60 = PERSON_AND_ORGANIZATION ( #231, #328 ) ;
#61 = VECTOR ( 'NONE', #129, 1000.000000000000000 ) ;
#62 = PRODUCT_DEFINITION_FORMATION_WITH_SPECIFIED_SOURCE ( 'ANY', '', #123, .NOT_KNOWN. ) ;
#63 = ORIENTED_EDGE ( 'NONE', *, *, #261, .T. ) ;
#64 = CARTESIAN_POINT ( 'NONE',  ( 1.710825856033135470E-13, 1.249999999999992006, 49.00000000000000000 ) ) ;
#65 = LINE ( 'NONE', #113, #73 ) ;
#66 = DIRECTION ( 'NONE',  ( 3.491481338843133355E-15, -1.224646799147353207E-16, 1.000000000000000000 ) ) ;
#67 = DIRECTION ( 'NONE',  ( -3.491481338843133355E-15, 1.224646799147353207E-16, -1.000000000000000000 ) ) ;
#68 = DIRECTION ( 'NONE',  ( -2.382254525458709186E-15, -0.7071067811865493491, -0.7071067811865456854 ) ) ;
#69 = AXIS2_PLACEMENT_3D ( 'NONE', #306, #286, #78 ) ;
#70 = DIRECTION ( 'NONE',  ( -3.491481338843133355E-15, 1.224646799147353207E-16, -1.000000000000000000 ) ) ;
#71 = DIRECTION ( 'NONE',  ( -3.491481338843133355E-15, 1.224646799147353207E-16, -1.000000000000000000 ) ) ;
#72 = EDGE_CURVE ( 'NONE', #232, #163, #16, .T. ) ;
#73 = VECTOR ( 'NONE', #217, 1000.000000000000114 ) ;
#74 = ORIENTED_EDGE ( 'NONE', *, *, #332, .T. ) ;
#75 = DIRECTION ( 'NONE',  ( 3.491481338843133355E-15, -1.224646799147353207E-16, 1.000000000000000000 ) ) ;
#76 = ORIENTED_EDGE ( 'NONE', *, *, #156, .F. ) ;
#77 = AXIS2_PLACEMENT_3D ( 'NONE', #192, #70, #142 ) ;
#78 = DIRECTION ( 'NONE',  ( 0.0000000000000000000, 1.000000000000000000, 0.0000000000000000000 ) ) ;
#79 = EDGE_CURVE ( 'NONE', #163, #106, #255, .T. ) ;
#80 = EDGE_LOOP ( 'NONE', ( #285, #237, #233, #182 ) ) ;
#81 = DIRECTION ( 'NONE',  ( -3.491481338843133355E-15, 1.224646799147353207E-16, -1.000000000000000000 ) ) ;
#82 = DIRECTION ( 'NONE',  ( -3.491481338843133355E-15, 1.224646799147353207E-16, -1.000000000000000000 ) ) ;
#83 = APPROVAL_ROLE ( '' ) ;
#84 = CARTESIAN_POINT ( 'NONE',  ( 7.055121885729952186E-31, 1.649999999999993028, 2.020667218593124373E-16 ) ) ;
#85 = CARTESIAN_POINT ( 'NONE',  ( 1.696859930677762937E-13, -5.951783443856137509E-15, 48.60000000000000142 ) ) ;
#86 = PLANE ( 'NONE',  #108 ) ;
#87 = PERSON_AND_ORGANIZATION_ROLE ( 'classification_officer' ) ;
#88 = CC_DESIGN_PERSON_AND_ORGANIZATION_ASSIGNMENT ( #302, #87, ( #241 ) ) ;
#89 = CARTESIAN_POINT ( 'NONE',  ( 4.888073874380386697E-14, 1.237301820696025137E-32, 14.00000000000000000 ) ) ;
#90 = LINE ( 'NONE', #137, #22 ) ;
#91 = AXIS2_PLACEMENT_3D ( 'NONE', #36, #139, #242 ) ;
#92 = LOCAL_TIME ( 9, 21, 48.00000000000000000, #243 ) ;
#93 = ORIENTED_EDGE ( 'NONE', *, *, #156, .T. ) ;
#94 = EDGE_CURVE ( 'NONE', #23, #163, #65, .T. ) ;
#95 = ORIENTED_EDGE ( 'NONE', *, *, #117, .T. ) ;
#96 = LINE ( 'NONE', #307, #61 ) ;
#97 = AXIS2_PLACEMENT_3D ( 'NONE', #54, #204, #336 ) ;
#98 = LOCAL_TIME ( 9, 21, 48.00000000000000000, #24 ) ;
#99 = APPLICATION_PROTOCOL_DEFINITION ( 'international standard', 'config_control_design', 1994, #316 ) ;
#100 = CARTESIAN_POINT ( 'NONE',  ( 3.461524503657780254E-15, -1.214139355812575554E-16, 0.9914200213954804664 ) ) ;
#101 = CARTESIAN_POINT ( 'NONE',  ( 1.710825856033135470E-13, -6.000769315822030937E-15, 49.00000000000000000 ) ) ;
#102 = ADVANCED_FACE ( 'NONE', ( #220 ), #319, .F. ) ;
#103 = COORDINATED_UNIVERSAL_TIME_OFFSET ( 1, 0, .AHEAD. ) ;
#104 = DIRECTION ( 'NONE',  ( 0.0000000000000000000, 1.000000000000000000, 0.0000000000000000000 ) ) ;
#105 = EDGE_CURVE ( 'NONE', #236, #1, #305, .T. ) ;
#106 = VERTEX_POINT ( 'NONE', #267 ) ;
#107 = PERSON_AND_ORGANIZATION_ROLE ( 'design_supplier' ) ;
#108 = AXIS2_PLACEMENT_3D ( 'NONE', #196, #190, #17 ) ;
#109 = CARTESIAN_POINT ( 'NONE',  ( 1.712356664532069470E-13, -1.250000000000004219, 49.00000000000000000 ) ) ;
#110 = DIRECTION ( 'NONE',  ( 4.275831445896958607E-31, 1.000000000000000000, 1.224646799147353207E-16 ) ) ;
#111 = PERSON_AND_ORGANIZATION ( #231, #328 ) ;
#112 = DIRECTION ( 'NONE',  ( 0.0000000000000000000, 1.000000000000000000, 0.0000000000000000000 ) ) ;
#113 = CARTESIAN_POINT ( 'NONE',  ( 3.663591225517092618E-15, 1.649999999999991918, 0.9914200213954806884 ) ) ;
#114 = CALENDAR_DATE ( 2021, 3, 9 ) ;
#115 = CLOSED_SHELL ( 'NONE', ( #295, #180, #102, #8, #314, #120 ) ) ;
#116 = LOCAL_TIME ( 9, 21, 48.00000000000000000, #12 ) ;
#117 = EDGE_CURVE ( 'NONE', #315, #232, #161, .T. ) ;
#118 = CARTESIAN_POINT ( 'NONE',  ( 4.888073874380386697E-14, 1.237301820696025137E-32, 14.00000000000000000 ) ) ;
#119 = LINE ( 'NONE', #18, #179 ) ;
#120 = ADVANCED_FACE ( 'NONE', ( #322 ), #86, .F. ) ;
#121 = EDGE_LOOP ( 'NONE', ( #312, #213 ) ) ;
#122 = ADVANCED_FACE ( 'NONE', ( #47 ), #324, .T. ) ;
#123 = PRODUCT ( '290', '290', '', ( #171 ) ) ;
#124 = PERSON_AND_ORGANIZATION_ROLE ( 'design_owner' ) ;
#125 = CARTESIAN_POINT ( 'NONE',  ( 3.461524503657780254E-15, -1.214139355812575554E-16, 0.9914200213954804664 ) ) ;
#126 = CONICAL_SURFACE ( 'NONE', #331, 1.649999999999992140, 1.029744258676649871 ) ;
#127 = APPROVAL_PERSON_ORGANIZATION ( #27, #208, #199 ) ;
#128 = ORIENTED_EDGE ( 'NONE', *, *, #244, .T. ) ;
#129 = DIRECTION ( 'NONE',  ( -3.491481338843133355E-15, 1.224646799147353207E-16, -1.000000000000000000 ) ) ;
#130 = ORIENTED_EDGE ( 'NONE', *, *, #41, .F. ) ;
#131 = APPROVAL_STATUS ( 'not_yet_approved' ) ;
#132 = PRODUCT_DEFINITION_SHAPE ( 'NONE', 'NONE',  #164 ) ;
#133 = CC_DESIGN_PERSON_AND_ORGANIZATION_ASSIGNMENT ( #278, #124, ( #123 ) ) ;
#134 = CARTESIAN_POINT ( 'NONE',  ( 1.710825856033135470E-13, 1.249999999999992006, 49.00000000000000000 ) ) ;
#135 =( NAMED_UNIT ( * ) SI_UNIT ( $, .STERADIAN. ) SOLID_ANGLE_UNIT ( ) );
#136 = DATE_AND_TIME ( #211, #230 ) ;
#137 = CARTESIAN_POINT ( 'NONE',  ( 2.020667218593120429E-16, -1.649999999999995692, -2.020667218593134480E-16 ) ) ;
#138 = CLOSED_SHELL ( 'NONE', ( #279, #329, #326, #251, #122 ) ) ;
#139 = DIRECTION ( 'NONE',  ( -3.491481338843133355E-15, 1.224646799147353207E-16, -1.000000000000000000 ) ) ;
#140 = CARTESIAN_POINT ( 'NONE',  ( 0.0000000000000000000, 0.0000000000000000000, 0.0000000000000000000 ) ) ;
#141 = DIRECTION ( 'NONE',  ( -3.491481338843133355E-15, 1.224646799147353207E-16, -1.000000000000000000 ) ) ;
#142 = DIRECTION ( 'NONE',  ( 0.0000000000000000000, 1.000000000000000000, 0.0000000000000000000 ) ) ;
#143 = CYLINDRICAL_SURFACE ( 'NONE', #327, 1.649999999999995692 ) ;
#144 = EDGE_LOOP ( 'NONE', ( #309, #55 ) ) ;
#145 = SECURITY_CLASSIFICATION_LEVEL ( 'unclassified' ) ;
#146 = AXIS2_PLACEMENT_3D ( 'NONE', #100, #75, #49 ) ;
#147 = CC_DESIGN_SECURITY_CLASSIFICATION ( #241, ( #62 ) ) ;
#148 = CC_DESIGN_PERSON_AND_ORGANIZATION_ASSIGNMENT ( #268, #334, ( #164 ) ) ;
#149 = DIRECTION ( 'NONE',  ( -2.468850131082258244E-15, 0.7071067811865495711, -0.7071067811865454633 ) ) ;
#150 = FACE_OUTER_BOUND ( 'NONE', #234, .T. ) ;
#151 = CIRCLE ( 'NONE', #198, 1.649999999999992140 ) ;
#152 = DIRECTION ( 'NONE',  ( 1.798245827342159528E-15, -0.8571673007021100021, 0.5150380749100580413 ) ) ;
#153 = ORIENTED_EDGE ( 'NONE', *, *, #200, .F. ) ;
#154 = FACE_OUTER_BOUND ( 'NONE', #210, .T. ) ;
#155 = ORIENTED_EDGE ( 'NONE', *, *, #41, .T. ) ;
#156 = EDGE_CURVE ( 'NONE', #106, #163, #151, .T. ) ;
#157 = CARTESIAN_POINT ( 'NONE',  ( 1.710825856033135470E-13, -6.000769315822030937E-15, 49.00000000000000000 ) ) ;
#158 = ORIENTED_EDGE ( 'NONE', *, *, #219, .F. ) ;
#159 = PRODUCT_RELATED_PRODUCT_CATEGORY ( 'detail', '', ( #123 ) ) ;
#160 = LINE ( 'NONE', #58, #229 ) ;
#161 = CIRCLE ( 'NONE', #91, 1.649999999999993694 ) ;
#162 = CARTESIAN_POINT ( 'NONE',  ( 1.094854326276492381E-13, -1.650000000000003686, 48.60000000000000142 ) ) ;
#163 = VERTEX_POINT ( 'NONE', #248 ) ;
#164 = PRODUCT_DEFINITION ( 'UNKNOWN', '', #62, #318 ) ;
#165 = DIRECTION ( 'NONE',  ( 1.000000000000000000, 0.0000000000000000000, 0.0000000000000000000 ) ) ;
#166 = CARTESIAN_POINT ( 'NONE',  ( 0.0000000000000000000, 0.0000000000000000000, 0.0000000000000000000 ) ) ;
#167 = APPROVAL_DATE_TIME ( #289, #208 ) ;
#168 = AXIS2_PLACEMENT_3D ( 'NONE', #202, #81, #51 ) ;
#169 = CYLINDRICAL_SURFACE ( 'NONE', #19, 1.649999999999995692 ) ;
#170 = MANIFOLD_SOLID_BREP ( 'Corps-Déplacer/Copier1[1]', #115 ) ;
#171 = MECHANICAL_CONTEXT ( 'NONE', #224, 'mechanical' ) ;
#172 = DIRECTION ( 'NONE',  ( -3.491481338843133355E-15, 1.224646799147353207E-16, -1.000000000000000000 ) ) ;
#173 = DIRECTION ( 'NONE',  ( 0.0000000000000000000, 1.000000000000000000, 0.0000000000000000000 ) ) ;
#174 = DIRECTION ( 'NONE',  ( -4.275831445896958607E-31, -1.000000000000000000, -1.224646799147353207E-16 ) ) ;
#175 = FACE_OUTER_BOUND ( 'NONE', #181, .T. ) ;
#176 = DIRECTION ( 'NONE',  ( -3.491481338843133355E-15, 1.224646799147353207E-16, -1.000000000000000000 ) ) ;
#177 = AXIS2_PLACEMENT_3D ( 'NONE', #272, #176, #20 ) ;
#178 = DIRECTION ( 'NONE',  ( 0.0000000000000000000, 1.000000000000000000, 0.0000000000000000000 ) ) ;
#179 = VECTOR ( 'NONE', #67, 1000.000000000000000 ) ;
#180 = ADVANCED_FACE ( 'NONE', ( #277 ), #143, .T. ) ;
#181 = EDGE_LOOP ( 'NONE', ( #30, #95, #28, #76 ) ) ;
#182 = ORIENTED_EDGE ( 'NONE', *, *, #271, .F. ) ;
#183 = FACE_OUTER_BOUND ( 'NONE', #330, .T. ) ;
#184 = CALENDAR_DATE ( 2021, 3, 9 ) ;
#185 = CIRCLE ( 'NONE', #235, 1.249999999999998002 ) ;
#186 = VERTEX_POINT ( 'NONE', #266 ) ;
#187 = CARTESIAN_POINT ( 'NONE',  ( 1.696859930677762937E-13, -5.951783443856137509E-15, 48.60000000000000142 ) ) ;
#188 = DIRECTION ( 'NONE',  ( 0.0000000000000000000, 1.000000000000000000, 0.0000000000000000000 ) ) ;
#189 = CALENDAR_DATE ( 2021, 3, 9 ) ;
#190 = DIRECTION ( 'NONE',  ( -3.491481338843133355E-15, 1.224646799147353207E-16, -1.000000000000000000 ) ) ;
#191 = APPLICATION_PROTOCOL_DEFINITION ( 'international standard', 'config_control_design', 1994, #224 ) ;
#192 = CARTESIAN_POINT ( 'NONE',  ( 4.888073874380386697E-14, -1.714505518806294638E-15, 14.00000000000000000 ) ) ;
#193 = AXIS2_PLACEMENT_3D ( 'NONE', #118, #66, #174 ) ;
#194 = DIRECTION ( 'NONE',  ( 3.491481338843133355E-15, -1.224646799147353207E-16, 1.000000000000000000 ) ) ;
#195 = CC_DESIGN_DATE_AND_TIME_ASSIGNMENT ( #15, #247, ( #241 ) ) ;
#196 = CARTESIAN_POINT ( 'NONE',  ( 1.710825856033135470E-13, 9.373498641636506046E-33, 49.00000000000000000 ) ) ;
#197 = DIRECTION ( 'NONE',  ( 4.668921077302412293E-31, 1.000000000000000000, 1.314184451497587422E-16 ) ) ;
#198 = AXIS2_PLACEMENT_3D ( 'NONE', #273, #43, #197 ) ;
#199 = APPROVAL_ROLE ( '' ) ;
#200 = EDGE_CURVE ( 'NONE', #1, #186, #249, .T. ) ;
#201 = AXIS2_PLACEMENT_3D ( 'NONE', #140, #42, #245 ) ;
#202 = CARTESIAN_POINT ( 'NONE',  ( 0.0000000000000000000, 0.0000000000000000000, 0.0000000000000000000 ) ) ;
#203 = APPROVAL_PERSON_ORGANIZATION ( #111, #5, #218 ) ;
#204 = DIRECTION ( 'NONE',  ( -3.491481338843133355E-15, 1.224646799147353207E-16, -1.000000000000000000 ) ) ;
#205 = ORIENTED_EDGE ( 'NONE', *, *, #94, .T. ) ;
#206 = ORIENTED_EDGE ( 'NONE', *, *, #33, .F. ) ;
#207 = CIRCLE ( 'NONE', #77, 1.649999999999993694 ) ;
#208 = APPROVAL ( #257, 'UNSPECIFIED' ) ;
#209 = ORIENTED_EDGE ( 'NONE', *, *, #271, .T. ) ;
#210 = EDGE_LOOP ( 'NONE', ( #206, #29, #11, #130 ) ) ;
#211 = CALENDAR_DATE ( 2021, 3, 9 ) ;
#212 =( LENGTH_UNIT ( ) NAMED_UNIT ( * ) SI_UNIT ( .MILLI., .METRE. ) );
#213 = ORIENTED_EDGE ( 'NONE', *, *, #105, .F. ) ;
#214 = EDGE_CURVE ( 'NONE', #6, #284, #90, .T. ) ;
#215 = CIRCLE ( 'NONE', #280, 1.649999999999997913 ) ;
#216 = DIRECTION ( 'NONE',  ( -4.275831445896958607E-31, -1.000000000000000000, -1.224646799147353207E-16 ) ) ;
#217 = DIRECTION ( 'NONE',  ( 1.903218546456021928E-15, 0.8571673007021098911, 0.5150380749100583744 ) ) ;
#218 = APPROVAL_ROLE ( '' ) ;
#219 = EDGE_CURVE ( 'NONE', #186, #6, #325, .T. ) ;
#220 = FACE_OUTER_BOUND ( 'NONE', #59, .T. ) ;
#221 = CARTESIAN_POINT ( 'NONE',  ( 0.0000000000000000000, 0.0000000000000000000, 0.0000000000000000000 ) ) ;
#222 = VECTOR ( 'NONE', #301, 1000.000000000000000 ) ;
#223 = APPROVAL_STATUS ( 'not_yet_approved' ) ;
#224 = APPLICATION_CONTEXT ( 'configuration controlled 3d designs of mechanical parts and assemblies' ) ;
#225 = ORIENTED_EDGE ( 'NONE', *, *, #33, .T. ) ;
#226 = DIRECTION ( 'NONE',  ( 0.0000000000000000000, 0.0000000000000000000, 1.000000000000000000 ) ) ;
#227 = APPROVAL_PERSON_ORGANIZATION ( #313, #290, #83 ) ;
#228 = EDGE_CURVE ( 'NONE', #315, #106, #119, .T. ) ;
#229 = VECTOR ( 'NONE', #152, 1000.000000000000000 ) ;
#230 = LOCAL_TIME ( 9, 21, 48.00000000000000000, #103 ) ;
#231 = PERSON ( 'UNSPECIFIED', 'UNSPECIFIED', 'UNSPECIFIED', ('UNSPECIFIED'), ('UNSPECIFIED'), ('UNSPECIFIED') ) ;
#232 = VERTEX_POINT ( 'NONE', #269 ) ;
#233 = ORIENTED_EDGE ( 'NONE', *, *, #261, .F. ) ;
#234 = EDGE_LOOP ( 'NONE', ( #310, #205, #238 ) ) ;
#235 = AXIS2_PLACEMENT_3D ( 'NONE', #101, #82, #104 ) ;
#236 = VERTEX_POINT ( 'NONE', #38 ) ;
#237 = ORIENTED_EDGE ( 'NONE', *, *, #214, .T. ) ;
#238 = ORIENTED_EDGE ( 'NONE', *, *, #79, .T. ) ;
#239 = PERSON_AND_ORGANIZATION_ROLE ( 'creator' ) ;
#240 = DATE_TIME_ROLE ( 'creation_date' ) ;
#241 = SECURITY_CLASSIFICATION ( '', '', #145 ) ;
#242 = DIRECTION ( 'NONE',  ( 0.0000000000000000000, 1.000000000000000000, 0.0000000000000000000 ) ) ;
#243 = COORDINATED_UNIVERSAL_TIME_OFFSET ( 1, 0, .AHEAD. ) ;
#244 = EDGE_CURVE ( 'NONE', #284, #264, #37, .T. ) ;
#245 = DIRECTION ( 'NONE',  ( 4.275831445896958607E-31, 1.000000000000000000, 1.224646799147353207E-16 ) ) ;
#246 = CARTESIAN_POINT ( 'NONE',  ( 0.0000000000000000000, 0.0000000000000000000, 0.0000000000000000000 ) ) ;
#247 = DATE_TIME_ROLE ( 'classification_date' ) ;
#248 = CARTESIAN_POINT ( 'NONE',  ( 3.663591225517092618E-15, 1.649999999999991918, 0.9914200213954806884 ) ) ;
#249 = LINE ( 'NONE', #64, #253 ) ;
#250 = CONICAL_SURFACE ( 'NONE', #69, 1.249999999999998002, 0.7853981633974510546 ) ;
#251 = ADVANCED_FACE ( 'NONE', ( #175 ), #275, .T. ) ;
#252 = ORIENTED_EDGE ( 'NONE', *, *, #94, .F. ) ;
#253 = VECTOR ( 'NONE', #149, 1000.000000000000000 ) ;
#254 = ORIENTED_EDGE ( 'NONE', *, *, #79, .F. ) ;
#255 = CIRCLE ( 'NONE', #292, 1.649999999999992140 ) ;
#256 = CARTESIAN_POINT ( 'NONE',  ( 4.888073874380386697E-14, 1.649999999999991918, 14.00000000000000000 ) ) ;
#257 = APPROVAL_STATUS ( 'not_yet_approved' ) ;
#258 = DIRECTION ( 'NONE',  ( -3.491481338843133355E-15, 1.224646799147353207E-16, -1.000000000000000000 ) ) ;
#259 = ORIENTED_EDGE ( 'NONE', *, *, #72, .F. ) ;
#260 = ORIENTED_EDGE ( 'NONE', *, *, #244, .F. ) ;
#261 = EDGE_CURVE ( 'NONE', #264, #284, #207, .T. ) ;
#262 = CIRCLE ( 'NONE', #97, 1.649999999999993694 ) ;
#263 = CC_DESIGN_APPROVAL ( #290, ( #62 ) ) ;
#264 = VERTEX_POINT ( 'NONE', #256 ) ;
#265 =( NAMED_UNIT ( * ) PLANE_ANGLE_UNIT ( ) SI_UNIT ( $, .RADIAN. ) );
#266 = CARTESIAN_POINT ( 'NONE',  ( 1.696859930677762937E-13, 1.649999999999991918, 48.60000000000000142 ) ) ;
#267 = CARTESIAN_POINT ( 'NONE',  ( 3.461524503657779466E-15, -1.649999999999992362, 0.9914200213954802443 ) ) ;
#268 = PERSON_AND_ORGANIZATION ( #231, #328 ) ;
#269 = CARTESIAN_POINT ( 'NONE',  ( 4.888073874380386697E-14, 1.649999999999991918, 14.00000000000000000 ) ) ;
#270 = CARTESIAN_POINT ( 'NONE',  ( 3.461524503657780254E-15, -1.214139355812575554E-16, 0.9914200213954804664 ) ) ;
#271 = EDGE_CURVE ( 'NONE', #186, #264, #96, .T. ) ;
#272 = CARTESIAN_POINT ( 'NONE',  ( 4.888073874380386697E-14, -1.714505518806294638E-15, 14.00000000000000000 ) ) ;
#273 = CARTESIAN_POINT ( 'NONE',  ( 3.461524503657780254E-15, -1.214139355812575554E-16, 0.9914200213954804664 ) ) ;
#274 = ORIENTED_EDGE ( 'NONE', *, *, #335, .T. ) ;
#275 = CYLINDRICAL_SURFACE ( 'NONE', #201, 1.649999999999993028 ) ;
#276 = CONICAL_SURFACE ( 'NONE', #146, 1.649999999999992140, 1.029744258676649871 ) ;
#277 = FACE_OUTER_BOUND ( 'NONE', #80, .T. ) ;
#278 = PERSON_AND_ORGANIZATION ( #231, #328 ) ;
#279 = ADVANCED_FACE ( 'NONE', ( #283 ), #281, .T. ) ;
#280 = AXIS2_PLACEMENT_3D ( 'NONE', #187, #14, #188 ) ;
#281 = CYLINDRICAL_SURFACE ( 'NONE', #168, 1.649999999999993028 ) ;
#282 = VECTOR ( 'NONE', #68, 1000.000000000000000 ) ;
#283 = FACE_OUTER_BOUND ( 'NONE', #337, .T. ) ;
#284 = VERTEX_POINT ( 'NONE', #25 ) ;
#285 = ORIENTED_EDGE ( 'NONE', *, *, #219, .T. ) ;
#286 = DIRECTION ( 'NONE',  ( -3.491481338843133355E-15, 1.224646799147353207E-16, -1.000000000000000000 ) ) ;
#287 = DATE_AND_TIME ( #184, #116 ) ;
#288 = ORIENTED_EDGE ( 'NONE', *, *, #214, .F. ) ;
#289 = DATE_AND_TIME ( #2, #98 ) ;
#290 = APPROVAL ( #131, 'UNSPECIFIED' ) ;
#291 = UNCERTAINTY_MEASURE_WITH_UNIT (LENGTH_MEASURE( 1.000000000000000082E-05 ), #212, 'distance_accuracy_value', 'NONE');
#292 = AXIS2_PLACEMENT_3D ( 'NONE', #270, #323, #39 ) ;
#293 = LOCAL_TIME ( 9, 21, 48.00000000000000000, #303 ) ;
#294 = ORIENTED_EDGE ( 'NONE', *, *, #308, .T. ) ;
#295 = ADVANCED_FACE ( 'NONE', ( #183 ), #250, .T. ) ;
#296 = CARTESIAN_POINT ( 'NONE',  ( 1.710825856033135470E-13, -6.000769315822030937E-15, 49.00000000000000000 ) ) ;
#297 = CC_DESIGN_DATE_AND_TIME_ASSIGNMENT ( #136, #240, ( #164 ) ) ;
#298 = DIRECTION ( 'NONE',  ( -3.491481338843133355E-15, 1.224646799147353207E-16, -1.000000000000000000 ) ) ;
#299 = LINE ( 'NONE', #109, #282 ) ;
#300 = CONICAL_SURFACE ( 'NONE', #48, 1.249999999999998002, 0.7853981633974510546 ) ;
#301 = DIRECTION ( 'NONE',  ( -3.491481338843133355E-15, 1.224646799147353207E-16, -1.000000000000000000 ) ) ;
#302 = PERSON_AND_ORGANIZATION ( #231, #328 ) ;
#303 = COORDINATED_UNIVERSAL_TIME_OFFSET ( 1, 0, .AHEAD. ) ;
#304 = CC_DESIGN_PERSON_AND_ORGANIZATION_ASSIGNMENT ( #60, #239, ( #62 ) ) ;
#305 = CIRCLE ( 'NONE', #3, 1.249999999999998002 ) ;
#306 = CARTESIAN_POINT ( 'NONE',  ( 1.710825856033135470E-13, -6.000769315822030937E-15, 49.00000000000000000 ) ) ;
#307 = CARTESIAN_POINT ( 'NONE',  ( 7.055121885729963572E-31, 1.649999999999995692, 2.020667218593127578E-16 ) ) ;
#308 = EDGE_CURVE ( 'NONE', #232, #315, #262, .T. ) ;
#309 = ORIENTED_EDGE ( 'NONE', *, *, #308, .F. ) ;
#310 = ORIENTED_EDGE ( 'NONE', *, *, #335, .F. ) ;
#311 = AXIS2_PLACEMENT_3D ( 'NONE', #85, #298, #112 ) ;
#312 = ORIENTED_EDGE ( 'NONE', *, *, #332, .F. ) ;
#313 = PERSON_AND_ORGANIZATION ( #231, #328 ) ;
#314 = ADVANCED_FACE ( 'NONE', ( #154 ), #300, .T. ) ;
#315 = VERTEX_POINT ( 'NONE', #4 ) ;
#316 = APPLICATION_CONTEXT ( 'configuration controlled 3d designs of mechanical parts and assemblies' ) ;
#317 = EDGE_LOOP ( 'NONE', ( #252, #274, #93 ) ) ;
#318 = DESIGN_CONTEXT ( 'detailed design', #316, 'design' ) ;
#319 = PLANE ( 'NONE',  #13 ) ;
#320 = CC_DESIGN_PERSON_AND_ORGANIZATION_ASSIGNMENT ( #10, #107, ( #62 ) ) ;
#321 = DIRECTION ( 'NONE',  ( -3.491481338843133355E-15, 1.224646799147353207E-16, -1.000000000000000000 ) ) ;
#322 = FACE_OUTER_BOUND ( 'NONE', #121, .T. ) ;
#323 = DIRECTION ( 'NONE',  ( -3.491481338843133355E-15, 1.224646799147353207E-16, -1.000000000000000000 ) ) ;
#324 = PLANE ( 'NONE',  #193 ) ;
#325 = CIRCLE ( 'NONE', #311, 1.649999999999997913 ) ;
#326 = ADVANCED_FACE ( 'NONE', ( #56 ), #276, .T. ) ;
#327 = AXIS2_PLACEMENT_3D ( 'NONE', #221, #172, #35 ) ;
#328 = ORGANIZATION ( 'UNSPECIFIED', 'UNSPECIFIED', '' ) ;
#329 = ADVANCED_FACE ( 'NONE', ( #150 ), #126, .T. ) ;
#330 = EDGE_LOOP ( 'NONE', ( #74, #225, #158, #153 ) ) ;
#331 = AXIS2_PLACEMENT_3D ( 'NONE', #125, #32, #7 ) ;
#332 = EDGE_CURVE ( 'NONE', #1, #236, #185, .T. ) ;
#333 = CC_DESIGN_APPROVAL ( #5, ( #241 ) ) ;
#334 = PERSON_AND_ORGANIZATION_ROLE ( 'creator' ) ;
#335 = EDGE_CURVE ( 'NONE', #23, #106, #160, .T. ) ;
#336 = DIRECTION ( 'NONE',  ( 0.0000000000000000000, 1.000000000000000000, 0.0000000000000000000 ) ) ;
#337 = EDGE_LOOP ( 'NONE', ( #294, #50, #254, #259 ) ) ;
ENDSEC;
END-ISO-10303-21;
