ISO-10303-21;
HEADER;
FILE_DESCRIPTION (( 'STEP AP203' ),
    '1' );
FILE_NAME ('28971.step',
    '2021-11-15T14:31:25',
    ( '' ),
    ( '' ),
    'SwSTEP 2.0',
    'SolidWorks 2019',
    '' );
FILE_SCHEMA (( 'CONFIG_CONTROL_DESIGN' ));
ENDSEC;

DATA;
#1 = APPROVAL_PERSON_ORGANIZATION ( #117, #196, #91 ) ;
#2 = CARTESIAN_POINT ( 'NONE',  ( 0.0000000000000000000, 0.0000000000000000000, 0.0000000000000000000 ) ) ;
#3 = DIRECTION ( 'NONE',  ( -4.346880784298277610E-31, -1.000000000000000000, -1.244996138440932059E-16 ) ) ;
#4 = CLOSED_SHELL ( 'NONE', ( #6, #94, #66, #170, #36 ) ) ;
#5 = ORIENTED_EDGE ( 'NONE', *, *, #166, .F. ) ;
#6 = ADVANCED_FACE ( 'NONE', ( #57, #183 ), #157, .T. ) ;
#7 = EDGE_LOOP ( 'NONE', ( #154 ) ) ;
#8 = APPROVAL_STATUS ( 'not_yet_approved' ) ;
#9 = VERTEX_POINT ( 'NONE', #85 ) ;
#10 = DIRECTION ( 'NONE',  ( -4.346880784298276734E-31, -1.000000000000000000, -1.244996138440932305E-16 ) ) ;
#11 = PERSON_AND_ORGANIZATION ( #89, #40 ) ;
#12 = LOCAL_TIME ( 15, 31, 25.00000000000000000, #29 ) ;
#13 = COORDINATED_UNIVERSAL_TIME_OFFSET ( 1, 0, .AHEAD. ) ;
#14 = APPLICATION_PROTOCOL_DEFINITION ( 'international standard', 'config_control_design', 1994, #162 ) ;
#15 = FACE_OUTER_BOUND ( 'NONE', #164, .T. ) ;
#16 = CARTESIAN_POINT ( 'NONE',  ( 7.605801812396793568E-14, 4.999999999999995559, 21.78388218141500232 ) ) ;
#17 = ORIENTED_EDGE ( 'NONE', *, *, #182, .F. ) ;
#18 = DIRECTION ( 'NONE',  ( -3.491481338843133355E-15, 1.224646799147353207E-16, -1.000000000000000000 ) ) ;
#19 = FACE_OUTER_BOUND ( 'NONE', #95, .T. ) ;
#20 = CC_DESIGN_PERSON_AND_ORGANIZATION_ASSIGNMENT ( #209, #107, ( #205 ) ) ;
#21 = ORIENTED_EDGE ( 'NONE', *, *, #197, .F. ) ;
#22 = DESIGN_CONTEXT ( 'detailed design', #162, 'design' ) ;
#23 = APPROVAL_PERSON_ORGANIZATION ( #195, #212, #161 ) ;
#24 = DIRECTION ( 'NONE',  ( -3.491481338843133355E-15, 1.224646799147353207E-16, -1.000000000000000000 ) ) ;
#25 = DIRECTION ( 'NONE',  ( 0.0000000000000000000, -1.000000000000000000, 0.0000000000000000000 ) ) ;
#26 = CLOSED_SHELL ( 'NONE', ( #124, #41, #48 ) ) ;
#27 = DIRECTION ( 'NONE',  ( 0.0000000000000000000, 1.000000000000000000, 0.0000000000000000000 ) ) ;
#28 = DIRECTION ( 'NONE',  ( -3.491481338843133355E-15, 1.224646799147353207E-16, -1.000000000000000000 ) ) ;
#29 = COORDINATED_UNIVERSAL_TIME_OFFSET ( 1, 0, .AHEAD. ) ;
#30 = CARTESIAN_POINT ( 'NONE',  ( 6.633814543801952113E-14, -1.734723475976807094E-15, 19.00000000000000000 ) ) ;
#31 = CIRCLE ( 'NONE', #81, 5.000000000000000888 ) ;
#32 = DIRECTION ( 'NONE',  ( 0.0000000000000000000, 1.000000000000000000, 0.0000000000000000000 ) ) ;
#33 = VERTEX_POINT ( 'NONE', #135 ) ;
#34 = CIRCLE ( 'NONE', #211, 4.500000000000000888 ) ;
#35 = CARTESIAN_POINT ( 'NONE',  ( 6.633814543801953375E-14, -4.500000000000003553, 19.00000000000000355 ) ) ;
#36 = ADVANCED_FACE ( 'NONE', ( #216 ), #138, .F. ) ;
#37 = EDGE_LOOP ( 'NONE', ( #75 ) ) ;
#38 = PERSON_AND_ORGANIZATION ( #89, #40 ) ;
#39 = CYLINDRICAL_SURFACE ( 'NONE', #171, 4.500000000000000888 ) ;
#40 = ORGANIZATION ( 'UNSPECIFIED', 'UNSPECIFIED', '' ) ;
#41 = ADVANCED_FACE ( 'NONE', ( #78, #60 ), #39, .T. ) ;
#42 = CARTESIAN_POINT ( 'NONE',  ( -8.551702076470480934E-31, 2.999533309458101739E-32, -2.449304821232125005E-16 ) ) ;
#43 = CARTESIAN_POINT ( 'NONE',  ( 0.0000000000000000000, 0.0000000000000000000, 0.0000000000000000000 ) ) ;
#44 = DIRECTION ( 'NONE',  ( -4.450511201481729313E-31, -1.000000000000000000, -1.244996138440932305E-16 ) ) ;
#45 = DIRECTION ( 'NONE',  ( 4.275831445896958607E-31, 1.000000000000000000, 1.224646799147353207E-16 ) ) ;
#46 = DATE_AND_TIME ( #206, #12 ) ;
#47 = CARTESIAN_POINT ( 'NONE',  ( 7.605801812396793568E-14, -2.081315732550426794E-15, 21.78388218141500232 ) ) ;
#48 = ADVANCED_FACE ( 'NONE', ( #15 ), #202, .F. ) ;
#49 = CALENDAR_DATE ( 2021, 15, 11 ) ;
#50 = COORDINATED_UNIVERSAL_TIME_OFFSET ( 1, 0, .AHEAD. ) ;
#51 = AXIS2_PLACEMENT_3D ( 'NONE', #203, #165, #96 ) ;
#52 = CC_DESIGN_DATE_AND_TIME_ASSIGNMENT ( #221, #172, ( #98 ) ) ;
#53 = VERTEX_POINT ( 'NONE', #150 ) ;
#54 = TOROIDAL_SURFACE ( 'NONE', #218, 12.49999999999999822, 7.999999999999998224 ) ;
#55 = VERTEX_POINT ( 'NONE', #16 ) ;
#56 = ORIENTED_EDGE ( 'NONE', *, *, #166, .T. ) ;
#57 = FACE_OUTER_BOUND ( 'NONE', #73, .T. ) ;
#58 = EDGE_LOOP ( 'NONE', ( #5 ) ) ;
#59 = UNCERTAINTY_MEASURE_WITH_UNIT (LENGTH_MEASURE( 1.000000000000000082E-05 ), #92, 'distance_accuracy_value', 'NONE');
#60 = FACE_OUTER_BOUND ( 'NONE', #123, .T. ) ;
#61 = CARTESIAN_POINT ( 'NONE',  ( -1.956096352934224574E-30, 6.975069231297747795E-32, -5.602482622984195128E-16 ) ) ;
#62 = DIRECTION ( 'NONE',  ( -3.491481338843133355E-15, 1.224646799147353207E-16, -1.000000000000000000 ) ) ;
#63 = CARTESIAN_POINT ( 'NONE',  ( 6.633814543801953375E-14, -2.365492663037771627E-15, 19.00000000000000355 ) ) ;
#64 = DIRECTION ( 'NONE',  ( 0.0000000000000000000, 1.000000000000000000, 0.0000000000000000000 ) ) ;
#65 = CALENDAR_DATE ( 2021, 15, 11 ) ;
#66 = ADVANCED_FACE ( 'NONE', ( #19 ), #204, .F. ) ;
#67 = CIRCLE ( 'NONE', #174, 4.500000000000001776 ) ;
#68 = CIRCLE ( 'NONE', #133, 4.500000000000001776 ) ;
#69 = VERTEX_POINT ( 'NONE', #35 ) ;
#70 = APPLICATION_PROTOCOL_DEFINITION ( 'international standard', 'config_control_design', 1994, #84 ) ;
#71 = LOCAL_TIME ( 15, 31, 25.00000000000000000, #156 ) ;
#72 = ORIENTED_EDGE ( 'NONE', *, *, #112, .F. ) ;
#73 = EDGE_LOOP ( 'NONE', ( #56 ) ) ;
#74 = DIRECTION ( 'NONE',  ( 0.0000000000000000000, 0.0000000000000000000, 1.000000000000000000 ) ) ;
#75 = ORIENTED_EDGE ( 'NONE', *, *, #112, .T. ) ;
#76 = EDGE_LOOP ( 'NONE', ( #179 ) ) ;
#77 = CC_DESIGN_APPROVAL ( #196, ( #98 ) ) ;
#78 = FACE_OUTER_BOUND ( 'NONE', #37, .T. ) ;
#79 = CARTESIAN_POINT ( 'NONE',  ( 2.513866563967056016E-13, -8.817456953860941711E-15, 72.00000000000000000 ) ) ;
#80 = AXIS2_PLACEMENT_3D ( 'NONE', #42, #122, #217 ) ;
#81 = AXIS2_PLACEMENT_3D ( 'NONE', #125, #24, #101 ) ;
#82 = DIRECTION ( 'NONE',  ( -3.491481338843133355E-15, 1.244996138440932305E-16, -1.000000000000000000 ) ) ;
#83 = DATE_TIME_ROLE ( 'classification_date' ) ;
#84 = APPLICATION_CONTEXT ( 'configuration controlled 3d designs of mechanical parts and assemblies' ) ;
#85 = CARTESIAN_POINT ( 'NONE',  ( -3.912192705868449148E-30, -4.500000000000000000, -1.120496524596839026E-15 ) ) ;
#86 = DIRECTION ( 'NONE',  ( 3.491481338843133355E-15, -1.244996138440932305E-16, 1.000000000000000000 ) ) ;
#87 = COORDINATED_UNIVERSAL_TIME_OFFSET ( 1, 0, .AHEAD. ) ;
#88 = APPROVAL_PERSON_ORGANIZATION ( #11, #163, #194 ) ;
#89 = PERSON ( 'UNSPECIFIED', 'UNSPECIFIED', 'UNSPECIFIED', ('UNSPECIFIED'), ('UNSPECIFIED'), ('UNSPECIFIED') ) ;
#90 =( NAMED_UNIT ( * ) PLANE_ANGLE_UNIT ( ) SI_UNIT ( $, .RADIAN. ) );
#91 = APPROVAL_ROLE ( '' ) ;
#92 =( LENGTH_UNIT ( ) NAMED_UNIT ( * ) SI_UNIT ( .MILLI., .METRE. ) );
#93 = FACE_OUTER_BOUND ( 'NONE', #115, .T. ) ;
#94 = ADVANCED_FACE ( 'NONE', ( #103, #105 ), #116, .T. ) ;
#95 = EDGE_LOOP ( 'NONE', ( #17 ) ) ;
#96 = DIRECTION ( 'NONE',  ( -4.275831445896958607E-31, -1.000000000000000000, -1.224646799147353207E-16 ) ) ;
#97 = EDGE_LOOP ( 'NONE', ( #99 ) ) ;
#98 = PRODUCT_DEFINITION ( 'UNKNOWN', '', #190, #22 ) ;
#99 = ORIENTED_EDGE ( 'NONE', *, *, #182, .T. ) ;
#100 = DIRECTION ( 'NONE',  ( 3.491481338843133355E-15, -1.244996138440932305E-16, 1.000000000000000000 ) ) ;
#101 = DIRECTION ( 'NONE',  ( 0.0000000000000000000, 1.000000000000000000, 0.0000000000000000000 ) ) ;
#102 = AXIS2_PLACEMENT_3D ( 'NONE', #168, #186, #64 ) ;
#103 = FACE_OUTER_BOUND ( 'NONE', #58, .T. ) ;
#104 = DATE_AND_TIME ( #49, #119 ) ;
#105 = FACE_BOUND ( 'NONE', #97, .T. ) ;
#106 = DIRECTION ( 'NONE',  ( 3.491481338843133355E-15, -1.244996138440932305E-16, 1.000000000000000000 ) ) ;
#107 = PERSON_AND_ORGANIZATION_ROLE ( 'classification_officer' ) ;
#108 = CARTESIAN_POINT ( 'NONE',  ( 6.633814543801953375E-14, -2.365492663037771627E-15, 19.00000000000000355 ) ) ;
#109 = PERSON_AND_ORGANIZATION ( #89, #40 ) ;
#110 = CC_DESIGN_APPROVAL ( #163, ( #190 ) ) ;
#111 = CIRCLE ( 'NONE', #222, 4.500000000000000000 ) ;
#112 = EDGE_CURVE ( 'NONE', #9, #9, #111, .T. ) ;
#113 = VERTEX_POINT ( 'NONE', #176 ) ;
#114 = PRODUCT ( '28971', '28971', '', ( #137 ) ) ;
#115 = EDGE_LOOP ( 'NONE', ( #215 ) ) ;
#116 = CONICAL_SURFACE ( 'NONE', #102, 4.500000000000000888, 0.7853981633974344012 ) ;
#117 = PERSON_AND_ORGANIZATION ( #89, #40 ) ;
#118 = CC_DESIGN_SECURITY_CLASSIFICATION ( #205, ( #190 ) ) ;
#119 = LOCAL_TIME ( 15, 31, 25.00000000000000000, #50 ) ;
#120 = ADVANCED_BREP_SHAPE_REPRESENTATION ( '28971', ( #175, #173, #139 ), #177 ) ;
#121 = CARTESIAN_POINT ( 'NONE',  ( 0.0000000000000000000, 0.0000000000000000000, 0.0000000000000000000 ) ) ;
#122 = DIRECTION ( 'NONE',  ( 3.491481338843133355E-15, -1.224646799147353207E-16, 1.000000000000000000 ) ) ;
#123 = EDGE_LOOP ( 'NONE', ( #21 ) ) ;
#124 = ADVANCED_FACE ( 'NONE', ( #193 ), #146, .T. ) ;
#125 = CARTESIAN_POINT ( 'NONE',  ( 2.496409157272839907E-13, -8.756224613903572559E-15, 71.49999999999998579 ) ) ;
#126 = LOCAL_TIME ( 15, 31, 25.00000000000000000, #13 ) ;
#127 = DIRECTION ( 'NONE',  ( 3.491481338843133355E-15, -1.224646799147353207E-16, 1.000000000000000000 ) ) ;
#128 = PERSON_AND_ORGANIZATION_ROLE ( 'creator' ) ;
#129 = DATE_AND_TIME ( #65, #153 ) ;
#130 = CARTESIAN_POINT ( 'NONE',  ( 2.513866563967056016E-13, 3.374459510989167028E-32, 72.00000000000000000 ) ) ;
#131 = CC_DESIGN_PERSON_AND_ORGANIZATION_ASSIGNMENT ( #109, #208, ( #98 ) ) ;
#132 = SHAPE_DEFINITION_REPRESENTATION ( #152, #120 ) ;
#133 = AXIS2_PLACEMENT_3D ( 'NONE', #63, #187, #25 ) ;
#134 =( NAMED_UNIT ( * ) SI_UNIT ( $, .STERADIAN. ) SOLID_ANGLE_UNIT ( ) );
#135 = CARTESIAN_POINT ( 'NONE',  ( 2.513866563967056016E-13, 4.499999999999992006, 72.00000000000000000 ) ) ;
#136 = EDGE_CURVE ( 'NONE', #55, #55, #149, .T. ) ;
#137 = MECHANICAL_CONTEXT ( 'NONE', #84, 'mechanical' ) ;
#138 = PLANE ( 'NONE',  #51 ) ;
#139 = AXIS2_PLACEMENT_3D ( 'NONE', #43, #74, #180 ) ;
#140 = DIRECTION ( 'NONE',  ( 3.491481338843133355E-15, -1.244996138440932305E-16, 1.000000000000000000 ) ) ;
#141 = CALENDAR_DATE ( 2021, 15, 11 ) ;
#142 = EDGE_CURVE ( 'NONE', #69, #69, #67, .T. ) ;
#143 = DIRECTION ( 'NONE',  ( 4.275831445896959482E-31, 1.000000000000000000, 1.224646799147353207E-16 ) ) ;
#144 = CALENDAR_DATE ( 2021, 15, 11 ) ;
#145 = PERSON_AND_ORGANIZATION ( #89, #40 ) ;
#146 = PLANE ( 'NONE',  #201 ) ;
#147 = APPROVAL_STATUS ( 'not_yet_approved' ) ;
#148 = APPROVAL_DATE_TIME ( #46, #163 ) ;
#149 = CIRCLE ( 'NONE', #207, 4.999999999999997335 ) ;
#150 = CARTESIAN_POINT ( 'NONE',  ( 2.496409157272839907E-13, 4.999999999999992006, 71.49999999999998579 ) ) ;
#151 = DATE_AND_TIME ( #141, #71 ) ;
#152 = PRODUCT_DEFINITION_SHAPE ( 'NONE', 'NONE',  #98 ) ;
#153 = LOCAL_TIME ( 15, 31, 25.00000000000000000, #87 ) ;
#154 = ORIENTED_EDGE ( 'NONE', *, *, #197, .T. ) ;
#155 = ORIENTED_EDGE ( 'NONE', *, *, #136, .T. ) ;
#156 = COORDINATED_UNIVERSAL_TIME_OFFSET ( 1, 0, .AHEAD. ) ;
#157 = CYLINDRICAL_SURFACE ( 'NONE', #199, 4.999999999999997335 ) ;
#158 = ORIENTED_EDGE ( 'NONE', *, *, #136, .F. ) ;
#159 = CARTESIAN_POINT ( 'NONE',  ( 6.633814543801952113E-14, 3.749399456654636904E-32, 19.00000000000000000 ) ) ;
#160 = FACE_OUTER_BOUND ( 'NONE', #200, .T. ) ;
#161 = APPROVAL_ROLE ( '' ) ;
#162 = APPLICATION_CONTEXT ( 'configuration controlled 3d designs of mechanical parts and assemblies' ) ;
#163 = APPROVAL ( #147, 'UNSPECIFIED' ) ;
#164 = EDGE_LOOP ( 'NONE', ( #72 ) ) ;
#165 = DIRECTION ( 'NONE',  ( 3.491481338843133355E-15, -1.224646799147353207E-16, 1.000000000000000000 ) ) ;
#166 = EDGE_CURVE ( 'NONE', #53, #53, #31, .T. ) ;
#167 = PERSON_AND_ORGANIZATION ( #89, #40 ) ;
#168 = CARTESIAN_POINT ( 'NONE',  ( 2.513866563967056016E-13, -8.817456953860941711E-15, 72.00000000000000000 ) ) ;
#169 = PERSON_AND_ORGANIZATION_ROLE ( 'design_supplier' ) ;
#170 = ADVANCED_FACE ( 'NONE', ( #93, #160 ), #54, .F. ) ;
#171 = AXIS2_PLACEMENT_3D ( 'NONE', #121, #140, #3 ) ;
#172 = DATE_TIME_ROLE ( 'creation_date' ) ;
#173 = MANIFOLD_SOLID_BREP ( 'Corps-Déplacer/Copier1[2]', #26 ) ;
#174 = AXIS2_PLACEMENT_3D ( 'NONE', #108, #86, #219 ) ;
#175 = MANIFOLD_SOLID_BREP ( 'Corps-Déplacer/Copier1[1]', #4 ) ;
#176 = CARTESIAN_POINT ( 'NONE',  ( 6.633814543801953375E-14, -4.500000000000003553, 19.00000000000000355 ) ) ;
#177 =( GEOMETRIC_REPRESENTATION_CONTEXT ( 3 ) GLOBAL_UNCERTAINTY_ASSIGNED_CONTEXT ( ( #59 ) ) GLOBAL_UNIT_ASSIGNED_CONTEXT ( ( #92, #90, #134 ) ) REPRESENTATION_CONTEXT ( 'NONE', 'WORKASPACE' ) );
#178 = CC_DESIGN_PERSON_AND_ORGANIZATION_ASSIGNMENT ( #145, #128, ( #190 ) ) ;
#179 = ORIENTED_EDGE ( 'NONE', *, *, #142, .F. ) ;
#180 = DIRECTION ( 'NONE',  ( 1.000000000000000000, 0.0000000000000000000, 0.0000000000000000000 ) ) ;
#181 = EDGE_LOOP ( 'NONE', ( #158 ) ) ;
#182 = EDGE_CURVE ( 'NONE', #33, #33, #34, .T. ) ;
#183 = FACE_OUTER_BOUND ( 'NONE', #181, .T. ) ;
#184 = APPROVAL_STATUS ( 'not_yet_approved' ) ;
#185 = PRODUCT_RELATED_PRODUCT_CATEGORY ( 'detail', '', ( #114 ) ) ;
#186 = DIRECTION ( 'NONE',  ( -3.491481338843133355E-15, 1.224646799147353207E-16, -1.000000000000000000 ) ) ;
#187 = DIRECTION ( 'NONE',  ( 3.491481338843133355E-15, -1.244996138440932305E-16, 1.000000000000000000 ) ) ;
#188 = DIRECTION ( 'NONE',  ( -4.275831445896958607E-31, -1.000000000000000000, -1.224646799147353207E-16 ) ) ;
#189 = SECURITY_CLASSIFICATION_LEVEL ( 'unclassified' ) ;
#190 = PRODUCT_DEFINITION_FORMATION_WITH_SPECIFIED_SOURCE ( 'ANY', '', #114, .NOT_KNOWN. ) ;
#191 = CC_DESIGN_PERSON_AND_ORGANIZATION_ASSIGNMENT ( #38, #213, ( #114 ) ) ;
#192 = APPROVAL_DATE_TIME ( #104, #212 ) ;
#193 = FACE_OUTER_BOUND ( 'NONE', #7, .T. ) ;
#194 = APPROVAL_ROLE ( '' ) ;
#195 = PERSON_AND_ORGANIZATION ( #89, #40 ) ;
#196 = APPROVAL ( #184, 'UNSPECIFIED' ) ;
#197 = EDGE_CURVE ( 'NONE', #113, #113, #68, .T. ) ;
#198 = APPROVAL_DATE_TIME ( #151, #196 ) ;
#199 = AXIS2_PLACEMENT_3D ( 'NONE', #2, #18, #143 ) ;
#200 = EDGE_LOOP ( 'NONE', ( #155 ) ) ;
#201 = AXIS2_PLACEMENT_3D ( 'NONE', #159, #127, #188 ) ;
#202 = PLANE ( 'NONE',  #80 ) ;
#203 = CARTESIAN_POINT ( 'NONE',  ( 6.633814543801952113E-14, 3.749399456654636904E-32, 19.00000000000000000 ) ) ;
#204 = PLANE ( 'NONE',  #210 ) ;
#205 = SECURITY_CLASSIFICATION ( '', '', #189 ) ;
#206 = CALENDAR_DATE ( 2021, 15, 11 ) ;
#207 = AXIS2_PLACEMENT_3D ( 'NONE', #47, #82, #32 ) ;
#208 = PERSON_AND_ORGANIZATION_ROLE ( 'creator' ) ;
#209 = PERSON_AND_ORGANIZATION ( #89, #40 ) ;
#210 = AXIS2_PLACEMENT_3D ( 'NONE', #130, #28, #45 ) ;
#211 = AXIS2_PLACEMENT_3D ( 'NONE', #79, #62, #27 ) ;
#212 = APPROVAL ( #8, 'UNSPECIFIED' ) ;
#213 = PERSON_AND_ORGANIZATION_ROLE ( 'design_owner' ) ;
#214 = CC_DESIGN_APPROVAL ( #212, ( #205 ) ) ;
#215 = ORIENTED_EDGE ( 'NONE', *, *, #142, .T. ) ;
#216 = FACE_OUTER_BOUND ( 'NONE', #76, .T. ) ;
#217 = DIRECTION ( 'NONE',  ( -4.275831445896958607E-31, -1.000000000000000000, -1.224646799147353207E-16 ) ) ;
#218 = AXIS2_PLACEMENT_3D ( 'NONE', #30, #100, #44 ) ;
#219 = DIRECTION ( 'NONE',  ( 0.0000000000000000000, -1.000000000000000000, 0.0000000000000000000 ) ) ;
#220 = CC_DESIGN_DATE_AND_TIME_ASSIGNMENT ( #129, #83, ( #205 ) ) ;
#221 = DATE_AND_TIME ( #144, #126 ) ;
#222 = AXIS2_PLACEMENT_3D ( 'NONE', #61, #106, #10 ) ;
#223 = CC_DESIGN_PERSON_AND_ORGANIZATION_ASSIGNMENT ( #167, #169, ( #190 ) ) ;
ENDSEC;
END-ISO-10303-21;
