ISO-10303-21;
HEADER;
FILE_DESCRIPTION (( 'STEP AP203' ),
    '1' );
FILE_NAME ('28967.step',
    '2021-11-15T14:31:25',
    ( '' ),
    ( '' ),
    'SwSTEP 2.0',
    'SolidWorks 2019',
    '' );
FILE_SCHEMA (( 'CONFIG_CONTROL_DESIGN' ));
ENDSEC;

DATA;
#1 = CIRCLE ( 'NONE', #90, 3.999999999999998224 ) ;
#2 = ORIENTED_EDGE ( 'NONE', *, *, #198, .F. ) ;
#3 = DIRECTION ( 'NONE',  ( 3.491481338843133355E-15, -1.224646799147353207E-16, 1.000000000000000000 ) ) ;
#4 =( NAMED_UNIT ( * ) PLANE_ANGLE_UNIT ( ) SI_UNIT ( $, .RADIAN. ) );
#5 = MANIFOLD_SOLID_BREP ( 'Corps-Déplacer/Copier1[2]', #104 ) ;
#6 = APPROVAL_PERSON_ORGANIZATION ( #194, #101, #147 ) ;
#7 = CC_DESIGN_DATE_AND_TIME_ASSIGNMENT ( #111, #219, ( #191 ) ) ;
#8 = EDGE_LOOP ( 'NONE', ( #30 ) ) ;
#9 = CYLINDRICAL_SURFACE ( 'NONE', #47, 3.999999999999998224 ) ;
#10 = ADVANCED_FACE ( 'NONE', ( #16 ), #79, .F. ) ;
#11 = DIRECTION ( 'NONE',  ( 0.0000000000000000000, 1.000000000000000000, 0.0000000000000000000 ) ) ;
#12 = CC_DESIGN_APPROVAL ( #199, ( #120 ) ) ;
#13 = CARTESIAN_POINT ( 'NONE',  ( 2.199633243471174140E-13, 2.624579619658240413E-32, 63.00000000000000000 ) ) ;
#14 = CARTESIAN_POINT ( 'NONE',  ( 2.182175836776958284E-13, -7.654042494670957804E-15, 62.50000000000000000 ) ) ;
#15 = ADVANCED_FACE ( 'NONE', ( #169, #139 ), #168, .T. ) ;
#16 = FACE_OUTER_BOUND ( 'NONE', #173, .T. ) ;
#17 = APPROVAL_PERSON_ORGANIZATION ( #150, #199, #91 ) ;
#18 = CLOSED_SHELL ( 'NONE', ( #22, #15, #10, #148, #50 ) ) ;
#19 = DIRECTION ( 'NONE',  ( 0.0000000000000000000, -1.000000000000000000, 0.0000000000000000000 ) ) ;
#20 = DATE_AND_TIME ( #71, #59 ) ;
#21 = DIRECTION ( 'NONE',  ( 3.491481338843133355E-15, -1.224646799147353207E-16, 1.000000000000000000 ) ) ;
#22 = ADVANCED_FACE ( 'NONE', ( #69, #138 ), #9, .T. ) ;
#23 = AXIS2_PLACEMENT_3D ( 'NONE', #204, #153, #100 ) ;
#24 = CARTESIAN_POINT ( 'NONE',  ( 5.586370142149013368E-14, -3.500000000000003997, 16.00000000000000000 ) ) ;
#25 = CALENDAR_DATE ( 2021, 15, 11 ) ;
#26 = APPROVAL_STATUS ( 'not_yet_approved' ) ;
#27 = PERSON_AND_ORGANIZATION ( #143, #193 ) ;
#28 = PERSON_AND_ORGANIZATION ( #143, #193 ) ;
#29 = AXIS2_PLACEMENT_3D ( 'NONE', #172, #82, #11 ) ;
#30 = ORIENTED_EDGE ( 'NONE', *, *, #109, .T. ) ;
#31 = EDGE_LOOP ( 'NONE', ( #201 ) ) ;
#32 = AXIS2_PLACEMENT_3D ( 'NONE', #13, #126, #52 ) ;
#33 = CC_DESIGN_APPROVAL ( #101, ( #205 ) ) ;
#34 = FACE_OUTER_BOUND ( 'NONE', #8, .T. ) ;
#35 = EDGE_LOOP ( 'NONE', ( #102 ) ) ;
#36 =( NAMED_UNIT ( * ) SI_UNIT ( $, .STERADIAN. ) SOLID_ANGLE_UNIT ( ) );
#37 = FACE_OUTER_BOUND ( 'NONE', #67, .T. ) ;
#38 = DESIGN_CONTEXT ( 'detailed design', #137, 'design' ) ;
#39 = SHAPE_DEFINITION_REPRESENTATION ( #127, #75 ) ;
#40 = AXIS2_PLACEMENT_3D ( 'NONE', #53, #140, #80 ) ;
#41 = DIRECTION ( 'NONE',  ( -4.275831445896958607E-31, -1.000000000000000000, -1.224646799147353207E-16 ) ) ;
#42 = PERSON_AND_ORGANIZATION_ROLE ( 'classification_officer' ) ;
#43 = MECHANICAL_CONTEXT ( 'NONE', #128, 'mechanical' ) ;
#44 = ADVANCED_FACE ( 'NONE', ( #34, #81 ), #207, .T. ) ;
#45 = APPLICATION_PROTOCOL_DEFINITION ( 'international standard', 'config_control_design', 1994, #137 ) ;
#46 = CC_DESIGN_DATE_AND_TIME_ASSIGNMENT ( #89, #132, ( #205 ) ) ;
#47 = AXIS2_PLACEMENT_3D ( 'NONE', #223, #64, #141 ) ;
#48 = EDGE_LOOP ( 'NONE', ( #152 ) ) ;
#49 = DIRECTION ( 'NONE',  ( 0.0000000000000000000, -1.000000000000000000, 0.0000000000000000000 ) ) ;
#50 = ADVANCED_FACE ( 'NONE', ( #188 ), #66, .F. ) ;
#51 = AXIS2_PLACEMENT_3D ( 'NONE', #14, #206, #189 ) ;
#52 = DIRECTION ( 'NONE',  ( 4.275831445896958607E-31, 1.000000000000000000, 1.224646799147353207E-16 ) ) ;
#53 = CARTESIAN_POINT ( 'NONE',  ( 0.0000000000000000000, 0.0000000000000000000, 0.0000000000000000000 ) ) ;
#54 = DIRECTION ( 'NONE',  ( 0.0000000000000000000, 1.000000000000000000, 0.0000000000000000000 ) ) ;
#55 =( GEOMETRIC_REPRESENTATION_CONTEXT ( 3 ) GLOBAL_UNCERTAINTY_ASSIGNED_CONTEXT ( ( #131 ) ) GLOBAL_UNIT_ASSIGNED_CONTEXT ( ( #164, #4, #36 ) ) REPRESENTATION_CONTEXT ( 'NONE', 'WORKASPACE' ) );
#56 = FACE_OUTER_BOUND ( 'NONE', #221, .T. ) ;
#57 = DIRECTION ( 'NONE',  ( 3.491481338843133355E-15, -1.244996138440932305E-16, 1.000000000000000000 ) ) ;
#58 = CIRCLE ( 'NONE', #51, 4.000000000000000888 ) ;
#59 = LOCAL_TIME ( 15, 31, 25.00000000000000000, #215 ) ;
#60 = DIRECTION ( 'NONE',  ( 0.0000000000000000000, 0.0000000000000000000, 1.000000000000000000 ) ) ;
#61 = DATE_AND_TIME ( #74, #85 ) ;
#62 = DATE_AND_TIME ( #113, #105 ) ;
#63 = CC_DESIGN_APPROVAL ( #209, ( #191 ) ) ;
#64 = DIRECTION ( 'NONE',  ( -3.491481338843133355E-15, 1.224646799147353207E-16, -1.000000000000000000 ) ) ;
#65 = DIRECTION ( 'NONE',  ( -4.275831445896958607E-31, -1.000000000000000000, -1.224646799147353207E-16 ) ) ;
#66 = PLANE ( 'NONE',  #217 ) ;
#67 = EDGE_LOOP ( 'NONE', ( #170 ) ) ;
#68 = CIRCLE ( 'NONE', #200, 3.500000000000001776 ) ;
#69 = FACE_OUTER_BOUND ( 'NONE', #155, .T. ) ;
#70 = VERTEX_POINT ( 'NONE', #208 ) ;
#71 = CALENDAR_DATE ( 2021, 15, 11 ) ;
#72 = DIRECTION ( 'NONE',  ( -4.455825581850111272E-31, -1.000000000000000000, -1.244996138440932305E-16 ) ) ;
#73 = APPLICATION_PROTOCOL_DEFINITION ( 'international standard', 'config_control_design', 1994, #128 ) ;
#74 = CALENDAR_DATE ( 2021, 15, 11 ) ;
#75 = ADVANCED_BREP_SHAPE_REPRESENTATION ( '28967', ( #76, #5, #183 ), #55 ) ;
#76 = MANIFOLD_SOLID_BREP ( 'Corps-Déplacer/Copier1[1]', #18 ) ;
#77 = PERSON_AND_ORGANIZATION_ROLE ( 'creator' ) ;
#78 = DIRECTION ( 'NONE',  ( 3.491481338843133355E-15, -1.244996138440932305E-16, 1.000000000000000000 ) ) ;
#79 = PLANE ( 'NONE',  #32 ) ;
#80 = DIRECTION ( 'NONE',  ( -4.346880784298277610E-31, -1.000000000000000000, -1.244996138440932305E-16 ) ) ;
#81 = FACE_OUTER_BOUND ( 'NONE', #125, .T. ) ;
#82 = DIRECTION ( 'NONE',  ( -3.491481338843133355E-15, 1.224646799147353207E-16, -1.000000000000000000 ) ) ;
#83 = CARTESIAN_POINT ( 'NONE',  ( 5.586370142149013368E-14, 2.999519565323708647E-32, 16.00000000000000000 ) ) ;
#84 = DIRECTION ( 'NONE',  ( 0.0000000000000000000, 1.000000000000000000, 0.0000000000000000000 ) ) ;
#85 = LOCAL_TIME ( 15, 31, 25.00000000000000000, #92 ) ;
#86 = CARTESIAN_POINT ( 'NONE',  ( 5.586370142149013368E-14, -1.734723475976807094E-15, 16.00000000000000000 ) ) ;
#87 = CARTESIAN_POINT ( 'NONE',  ( 6.558357410743852299E-14, 3.999999999999996447, 18.78388218141500232 ) ) ;
#88 = COORDINATED_UNIVERSAL_TIME_OFFSET ( 1, 0, .AHEAD. ) ;
#89 = DATE_AND_TIME ( #25, #149 ) ;
#90 = AXIS2_PLACEMENT_3D ( 'NONE', #103, #192, #84 ) ;
#91 = APPROVAL_ROLE ( '' ) ;
#92 = COORDINATED_UNIVERSAL_TIME_OFFSET ( 1, 0, .AHEAD. ) ;
#93 = APPROVAL_ROLE ( '' ) ;
#94 = TOROIDAL_SURFACE ( 'NONE', #220, 11.50000000000000000, 7.999999999999998224 ) ;
#95 = APPROVAL_STATUS ( 'not_yet_approved' ) ;
#96 = CC_DESIGN_PERSON_AND_ORGANIZATION_ASSIGNMENT ( #161, #42, ( #205 ) ) ;
#97 = ORIENTED_EDGE ( 'NONE', *, *, #167, .F. ) ;
#98 = EDGE_CURVE ( 'NONE', #158, #158, #114, .T. ) ;
#99 = ORIENTED_EDGE ( 'NONE', *, *, #167, .T. ) ;
#100 = DIRECTION ( 'NONE',  ( -4.346880784298277610E-31, -1.000000000000000000, -1.244996138440932305E-16 ) ) ;
#101 = APPROVAL ( #112, 'UNSPECIFIED' ) ;
#102 = ORIENTED_EDGE ( 'NONE', *, *, #214, .T. ) ;
#103 = CARTESIAN_POINT ( 'NONE',  ( 6.558357410743852299E-14, -2.081315732550426794E-15, 18.78388218141500232 ) ) ;
#104 = CLOSED_SHELL ( 'NONE', ( #196, #44, #203 ) ) ;
#105 = LOCAL_TIME ( 15, 31, 25.00000000000000000, #88 ) ;
#106 = CC_DESIGN_PERSON_AND_ORGANIZATION_ASSIGNMENT ( #27, #107, ( #120 ) ) ;
#107 = PERSON_AND_ORGANIZATION_ROLE ( 'design_supplier' ) ;
#108 = FACE_OUTER_BOUND ( 'NONE', #31, .T. ) ;
#109 = EDGE_CURVE ( 'NONE', #175, #175, #174, .T. ) ;
#110 = DIRECTION ( 'NONE',  ( -3.491481338843133355E-15, 1.224646799147353207E-16, -1.000000000000000000 ) ) ;
#111 = DATE_AND_TIME ( #195, #218 ) ;
#112 = APPROVAL_STATUS ( 'not_yet_approved' ) ;
#113 = CALENDAR_DATE ( 2021, 15, 11 ) ;
#114 = CIRCLE ( 'NONE', #119, 3.500000000000001776 ) ;
#115 = APPROVAL_PERSON_ORGANIZATION ( #28, #209, #93 ) ;
#116 = APPROVAL_DATE_TIME ( #62, #199 ) ;
#117 = EDGE_CURVE ( 'NONE', #70, #70, #58, .T. ) ;
#118 = PRODUCT_RELATED_PRODUCT_CATEGORY ( 'detail', '', ( #197 ) ) ;
#119 = AXIS2_PLACEMENT_3D ( 'NONE', #202, #78, #49 ) ;
#120 = PRODUCT_DEFINITION_FORMATION_WITH_SPECIFIED_SOURCE ( 'ANY', '', #197, .NOT_KNOWN. ) ;
#121 = EDGE_LOOP ( 'NONE', ( #99 ) ) ;
#122 = ORIENTED_EDGE ( 'NONE', *, *, #198, .T. ) ;
#123 = EDGE_LOOP ( 'NONE', ( #184 ) ) ;
#124 = CC_DESIGN_SECURITY_CLASSIFICATION ( #205, ( #120 ) ) ;
#125 = EDGE_LOOP ( 'NONE', ( #97 ) ) ;
#126 = DIRECTION ( 'NONE',  ( -3.491481338843133355E-15, 1.224646799147353207E-16, -1.000000000000000000 ) ) ;
#127 = PRODUCT_DEFINITION_SHAPE ( 'NONE', 'NONE',  #191 ) ;
#128 = APPLICATION_CONTEXT ( 'configuration controlled 3d designs of mechanical parts and assemblies' ) ;
#129 = VERTEX_POINT ( 'NONE', #162 ) ;
#130 = CARTESIAN_POINT ( 'NONE',  ( 5.586370142149013368E-14, -1.991993821505491689E-15, 16.00000000000000000 ) ) ;
#131 = UNCERTAINTY_MEASURE_WITH_UNIT (LENGTH_MEASURE( 1.000000000000000082E-05 ), #164, 'distance_accuracy_value', 'NONE');
#132 = DATE_TIME_ROLE ( 'classification_date' ) ;
#133 = AXIS2_PLACEMENT_3D ( 'NONE', #178, #3, #41 ) ;
#134 = DIRECTION ( 'NONE',  ( 1.000000000000000000, 0.0000000000000000000, 0.0000000000000000000 ) ) ;
#135 = AXIS2_PLACEMENT_3D ( 'NONE', #145, #110, #54 ) ;
#136 = EDGE_LOOP ( 'NONE', ( #2 ) ) ;
#137 = APPLICATION_CONTEXT ( 'configuration controlled 3d designs of mechanical parts and assemblies' ) ;
#138 = FACE_OUTER_BOUND ( 'NONE', #136, .T. ) ;
#139 = FACE_BOUND ( 'NONE', #35, .T. ) ;
#140 = DIRECTION ( 'NONE',  ( 3.491481338843133355E-15, -1.244996138440932305E-16, 1.000000000000000000 ) ) ;
#141 = DIRECTION ( 'NONE',  ( 4.275831445896958607E-31, 1.000000000000000000, 1.224646799147353207E-16 ) ) ;
#142 = VERTEX_POINT ( 'NONE', #176 ) ;
#143 = PERSON ( 'UNSPECIFIED', 'UNSPECIFIED', 'UNSPECIFIED', ('UNSPECIFIED'), ('UNSPECIFIED'), ('UNSPECIFIED') ) ;
#144 = DIRECTION ( 'NONE',  ( 3.491481338843133355E-15, -1.244996138440932305E-16, 1.000000000000000000 ) ) ;
#145 = CARTESIAN_POINT ( 'NONE',  ( 2.199633243471174140E-13, -7.715274834628325378E-15, 63.00000000000000000 ) ) ;
#146 = VERTEX_POINT ( 'NONE', #87 ) ;
#147 = APPROVAL_ROLE ( '' ) ;
#148 = ADVANCED_FACE ( 'NONE', ( #37, #56 ), #94, .F. ) ;
#149 = LOCAL_TIME ( 15, 31, 25.00000000000000000, #165 ) ;
#150 = PERSON_AND_ORGANIZATION ( #143, #193 ) ;
#151 = PERSON_AND_ORGANIZATION ( #143, #193 ) ;
#152 = ORIENTED_EDGE ( 'NONE', *, *, #117, .F. ) ;
#153 = DIRECTION ( 'NONE',  ( 3.491481338843133355E-15, -1.244996138440932305E-16, 1.000000000000000000 ) ) ;
#154 = ORIENTED_EDGE ( 'NONE', *, *, #214, .F. ) ;
#155 = EDGE_LOOP ( 'NONE', ( #171 ) ) ;
#156 = CC_DESIGN_PERSON_AND_ORGANIZATION_ASSIGNMENT ( #151, #77, ( #191 ) ) ;
#157 = CARTESIAN_POINT ( 'NONE',  ( -3.042816549008794327E-30, -3.500000000000000000, -8.714972969086526631E-16 ) ) ;
#158 = VERTEX_POINT ( 'NONE', #24 ) ;
#159 = APPROVAL_DATE_TIME ( #20, #101 ) ;
#160 = PLANE ( 'NONE',  #133 ) ;
#161 = PERSON_AND_ORGANIZATION ( #143, #193 ) ;
#162 = CARTESIAN_POINT ( 'NONE',  ( 2.199633243471174140E-13, 3.499999999999993783, 63.00000000000000000 ) ) ;
#163 = CC_DESIGN_PERSON_AND_ORGANIZATION_ASSIGNMENT ( #186, #181, ( #197 ) ) ;
#164 =( LENGTH_UNIT ( ) NAMED_UNIT ( * ) SI_UNIT ( .MILLI., .METRE. ) );
#165 = COORDINATED_UNIVERSAL_TIME_OFFSET ( 1, 0, .AHEAD. ) ;
#166 = COORDINATED_UNIVERSAL_TIME_OFFSET ( 1, 0, .AHEAD. ) ;
#167 = EDGE_CURVE ( 'NONE', #142, #142, #68, .T. ) ;
#168 = CONICAL_SURFACE ( 'NONE', #29, 3.500000000000001332, 0.7853981633974473908 ) ;
#169 = FACE_OUTER_BOUND ( 'NONE', #48, .T. ) ;
#170 = ORIENTED_EDGE ( 'NONE', *, *, #98, .T. ) ;
#171 = ORIENTED_EDGE ( 'NONE', *, *, #117, .T. ) ;
#172 = CARTESIAN_POINT ( 'NONE',  ( 2.199633243471174140E-13, -7.715274834628325378E-15, 63.00000000000000000 ) ) ;
#173 = EDGE_LOOP ( 'NONE', ( #154 ) ) ;
#174 = CIRCLE ( 'NONE', #23, 3.500000000000000000 ) ;
#175 = VERTEX_POINT ( 'NONE', #157 ) ;
#176 = CARTESIAN_POINT ( 'NONE',  ( 5.586370142149013368E-14, -3.500000000000003997, 16.00000000000000000 ) ) ;
#177 = PERSON_AND_ORGANIZATION ( #143, #193 ) ;
#178 = CARTESIAN_POINT ( 'NONE',  ( -6.413786353522005134E-31, 2.249653418127174030E-32, -1.836981421658449264E-16 ) ) ;
#179 = FACE_OUTER_BOUND ( 'NONE', #121, .T. ) ;
#180 = SECURITY_CLASSIFICATION_LEVEL ( 'unclassified' ) ;
#181 = PERSON_AND_ORGANIZATION_ROLE ( 'design_owner' ) ;
#182 = APPROVAL_DATE_TIME ( #61, #209 ) ;
#183 = AXIS2_PLACEMENT_3D ( 'NONE', #216, #60, #134 ) ;
#184 = ORIENTED_EDGE ( 'NONE', *, *, #98, .F. ) ;
#185 = CC_DESIGN_PERSON_AND_ORGANIZATION_ASSIGNMENT ( #177, #210, ( #120 ) ) ;
#186 = PERSON_AND_ORGANIZATION ( #143, #193 ) ;
#187 = CIRCLE ( 'NONE', #135, 3.500000000000001332 ) ;
#188 = FACE_OUTER_BOUND ( 'NONE', #123, .T. ) ;
#189 = DIRECTION ( 'NONE',  ( 0.0000000000000000000, 1.000000000000000000, 0.0000000000000000000 ) ) ;
#190 = DIRECTION ( 'NONE',  ( 3.491481338843133355E-15, -1.224646799147353207E-16, 1.000000000000000000 ) ) ;
#191 = PRODUCT_DEFINITION ( 'UNKNOWN', '', #120, #38 ) ;
#192 = DIRECTION ( 'NONE',  ( -3.491481338843133355E-15, 1.244996138440932305E-16, -1.000000000000000000 ) ) ;
#193 = ORGANIZATION ( 'UNSPECIFIED', 'UNSPECIFIED', '' ) ;
#194 = PERSON_AND_ORGANIZATION ( #143, #193 ) ;
#195 = CALENDAR_DATE ( 2021, 15, 11 ) ;
#196 = ADVANCED_FACE ( 'NONE', ( #179 ), #212, .T. ) ;
#197 = PRODUCT ( '28967', '28967', '', ( #43 ) ) ;
#198 = EDGE_CURVE ( 'NONE', #146, #146, #1, .T. ) ;
#199 = APPROVAL ( #26, 'UNSPECIFIED' ) ;
#200 = AXIS2_PLACEMENT_3D ( 'NONE', #130, #144, #19 ) ;
#201 = ORIENTED_EDGE ( 'NONE', *, *, #109, .F. ) ;
#202 = CARTESIAN_POINT ( 'NONE',  ( 5.586370142149013368E-14, -1.991993821505491689E-15, 16.00000000000000000 ) ) ;
#203 = ADVANCED_FACE ( 'NONE', ( #108 ), #160, .F. ) ;
#204 = CARTESIAN_POINT ( 'NONE',  ( -1.521408274504397164E-30, 5.425053846564915925E-32, -4.357486484543263315E-16 ) ) ;
#205 = SECURITY_CLASSIFICATION ( '', '', #180 ) ;
#206 = DIRECTION ( 'NONE',  ( -3.491481338843133355E-15, 1.224646799147353207E-16, -1.000000000000000000 ) ) ;
#207 = CYLINDRICAL_SURFACE ( 'NONE', #40, 3.500000000000000888 ) ;
#208 = CARTESIAN_POINT ( 'NONE',  ( 2.182175836776958284E-13, 3.999999999999993339, 62.50000000000000000 ) ) ;
#209 = APPROVAL ( #95, 'UNSPECIFIED' ) ;
#210 = PERSON_AND_ORGANIZATION_ROLE ( 'creator' ) ;
#211 = AXIS2_PLACEMENT_3D ( 'NONE', #83, #21, #213 ) ;
#212 = PLANE ( 'NONE',  #211 ) ;
#213 = DIRECTION ( 'NONE',  ( -4.275831445896958607E-31, -1.000000000000000000, -1.224646799147353207E-16 ) ) ;
#214 = EDGE_CURVE ( 'NONE', #129, #129, #187, .T. ) ;
#215 = COORDINATED_UNIVERSAL_TIME_OFFSET ( 1, 0, .AHEAD. ) ;
#216 = CARTESIAN_POINT ( 'NONE',  ( 0.0000000000000000000, 0.0000000000000000000, 0.0000000000000000000 ) ) ;
#217 = AXIS2_PLACEMENT_3D ( 'NONE', #222, #190, #65 ) ;
#218 = LOCAL_TIME ( 15, 31, 25.00000000000000000, #166 ) ;
#219 = DATE_TIME_ROLE ( 'creation_date' ) ;
#220 = AXIS2_PLACEMENT_3D ( 'NONE', #86, #57, #72 ) ;
#221 = EDGE_LOOP ( 'NONE', ( #122 ) ) ;
#222 = CARTESIAN_POINT ( 'NONE',  ( 5.586370142149013368E-14, 2.999519565323708647E-32, 16.00000000000000000 ) ) ;
#223 = CARTESIAN_POINT ( 'NONE',  ( 0.0000000000000000000, 0.0000000000000000000, 0.0000000000000000000 ) ) ;
ENDSEC;
END-ISO-10303-21;
