ISO-10303-21;
HEADER;
FILE_DESCRIPTION (( 'STEP AP203' ),
    '1' );
FILE_NAME ('28965.step',
    '2021-11-15T14:31:24',
    ( '' ),
    ( '' ),
    'SwSTEP 2.0',
    'SolidWorks 2019',
    '' );
FILE_SCHEMA (( 'CONFIG_CONTROL_DESIGN' ));
ENDSEC;

DATA;
#1 = CARTESIAN_POINT ( 'NONE',  ( 0.0000000000000000000, 0.0000000000000000000, 0.0000000000000000000 ) ) ;
#2 = LOCAL_TIME ( 15, 31, 24.00000000000000000, #74 ) ;
#3 = PERSON_AND_ORGANIZATION ( #141, #142 ) ;
#4 = MANIFOLD_SOLID_BREP ( 'Corps-Déplacer/Copier1[2]', #28 ) ;
#5 = ORIENTED_EDGE ( 'NONE', *, *, #187, .T. ) ;
#6 = ORIENTED_EDGE ( 'NONE', *, *, #193, .F. ) ;
#7 = APPROVAL_PERSON_ORGANIZATION ( #120, #105, #51 ) ;
#8 = EDGE_LOOP ( 'NONE', ( #196 ) ) ;
#9 = APPROVAL_DATE_TIME ( #87, #190 ) ;
#10 = FACE_OUTER_BOUND ( 'NONE', #86, .T. ) ;
#11 = ADVANCED_FACE ( 'NONE', ( #10, #22 ), #78, .T. ) ;
#12 = DIRECTION ( 'NONE',  ( 3.491481338843133355E-15, -1.224646799147353207E-16, 1.000000000000000000 ) ) ;
#13 = ADVANCED_FACE ( 'NONE', ( #119 ), #70, .T. ) ;
#14 =( NAMED_UNIT ( * ) PLANE_ANGLE_UNIT ( ) SI_UNIT ( $, .RADIAN. ) );
#15 = VERTEX_POINT ( 'NONE', #155 ) ;
#16 = ADVANCED_FACE ( 'NONE', ( #121, #160 ), #162, .T. ) ;
#17 = PRODUCT_RELATED_PRODUCT_CATEGORY ( 'detail', '', ( #151 ) ) ;
#18 = DATE_AND_TIME ( #72, #69 ) ;
#19 = CC_DESIGN_DATE_AND_TIME_ASSIGNMENT ( #18, #68, ( #45 ) ) ;
#20 = AXIS2_PLACEMENT_3D ( 'NONE', #83, #71, #98 ) ;
#21 = COORDINATED_UNIVERSAL_TIME_OFFSET ( 1, 0, .AHEAD. ) ;
#22 = FACE_BOUND ( 'NONE', #8, .T. ) ;
#23 = CIRCLE ( 'NONE', #32, 2.999999999999995559 ) ;
#24 = CALENDAR_DATE ( 2021, 15, 11 ) ;
#25 = DIRECTION ( 'NONE',  ( 0.0000000000000000000, 1.000000000000000000, 0.0000000000000000000 ) ) ;
#26 = DIRECTION ( 'NONE',  ( -3.491481338843133355E-15, 1.224646799147353207E-16, -1.000000000000000000 ) ) ;
#27 = APPROVAL_STATUS ( 'not_yet_approved' ) ;
#28 = CLOSED_SHELL ( 'NONE', ( #177, #37, #13 ) ) ;
#29 = DIRECTION ( 'NONE',  ( -3.491481338843133355E-15, 1.224646799147353207E-16, -1.000000000000000000 ) ) ;
#30 = CARTESIAN_POINT ( 'NONE',  ( 1.990144363140586139E-13, 2.499999999999995559, 57.00000000000000000 ) ) ;
#31 = DIRECTION ( 'NONE',  ( 0.0000000000000000000, 0.0000000000000000000, 1.000000000000000000 ) ) ;
#32 = AXIS2_PLACEMENT_3D ( 'NONE', #167, #26, #88 ) ;
#33 = CALENDAR_DATE ( 2021, 15, 11 ) ;
#34 = ORIENTED_EDGE ( 'NONE', *, *, #95, .T. ) ;
#35 = DIRECTION ( 'NONE',  ( 4.275831445896958607E-31, 1.000000000000000000, 1.224646799147353207E-16 ) ) ;
#36 = DIRECTION ( 'NONE',  ( -3.491481338843133355E-15, 1.224646799147353207E-16, -1.000000000000000000 ) ) ;
#37 = ADVANCED_FACE ( 'NONE', ( #164, #135 ), #195, .T. ) ;
#38 = DIRECTION ( 'NONE',  ( 3.491481338843133355E-15, -1.224646799147353207E-16, 1.000000000000000000 ) ) ;
#39 = DATE_AND_TIME ( #97, #154 ) ;
#40 = CC_DESIGN_PERSON_AND_ORGANIZATION_ASSIGNMENT ( #113, #199, ( #81 ) ) ;
#41 = PERSON_AND_ORGANIZATION ( #141, #142 ) ;
#42 = COORDINATED_UNIVERSAL_TIME_OFFSET ( 1, 0, .AHEAD. ) ;
#43 = DIRECTION ( 'NONE',  ( 0.0000000000000000000, 1.000000000000000000, 0.0000000000000000000 ) ) ;
#44 = DIRECTION ( 'NONE',  ( -4.275831445896958607E-31, -1.000000000000000000, -1.224646799147353207E-16 ) ) ;
#45 = PRODUCT_DEFINITION ( 'UNKNOWN', '', #81, #90 ) ;
#46 = VERTEX_POINT ( 'NONE', #111 ) ;
#47 = APPROVAL_PERSON_ORGANIZATION ( #189, #102, #176 ) ;
#48 = VERTEX_POINT ( 'NONE', #174 ) ;
#49 = MECHANICAL_CONTEXT ( 'NONE', #118, 'mechanical' ) ;
#50 = SHAPE_DEFINITION_REPRESENTATION ( #53, #114 ) ;
#51 = APPROVAL_ROLE ( '' ) ;
#52 = AXIS2_PLACEMENT_3D ( 'NONE', #1, #31, #158 ) ;
#53 = PRODUCT_DEFINITION_SHAPE ( 'NONE', 'NONE',  #45 ) ;
#54 = CARTESIAN_POINT ( 'NONE',  ( 4.538925740496073362E-14, 2.249639673992782033E-32, 13.00000000000000000 ) ) ;
#55 = CLOSED_SHELL ( 'NONE', ( #91, #16, #11, #147 ) ) ;
#56 = EDGE_LOOP ( 'NONE', ( #201 ) ) ;
#57 = PERSON_AND_ORGANIZATION_ROLE ( 'creator' ) ;
#58 = ORIENTED_EDGE ( 'NONE', *, *, #131, .F. ) ;
#59 = DATE_AND_TIME ( #33, #99 ) ;
#60 = DIRECTION ( 'NONE',  ( 3.491481338843133355E-15, -1.224646799147353207E-16, 1.000000000000000000 ) ) ;
#61 = DIRECTION ( 'NONE',  ( -3.491481338843133355E-15, 1.224646799147353207E-16, -1.000000000000000000 ) ) ;
#62 = AXIS2_PLACEMENT_3D ( 'NONE', #198, #178, #35 ) ;
#63 = DIRECTION ( 'NONE',  ( 4.275831445896958607E-31, 1.000000000000000000, 1.224646799147353207E-16 ) ) ;
#64 = CARTESIAN_POINT ( 'NONE',  ( 1.972686956446370535E-13, -6.919254415182545337E-15, 56.50000000000000000 ) ) ;
#65 = CIRCLE ( 'NONE', #85, 2.500000000000002665 ) ;
#66 = CARTESIAN_POINT ( 'NONE',  ( 4.538925740496073362E-14, 2.999999999999995559, 13.00000000000000000 ) ) ;
#67 = APPLICATION_PROTOCOL_DEFINITION ( 'international standard', 'config_control_design', 1994, #118 ) ;
#68 = DATE_TIME_ROLE ( 'creation_date' ) ;
#69 = LOCAL_TIME ( 15, 31, 24.00000000000000000, #21 ) ;
#70 = PLANE ( 'NONE',  #156 ) ;
#71 = DIRECTION ( 'NONE',  ( -3.491481338843133355E-15, 1.224646799147353207E-16, -1.000000000000000000 ) ) ;
#72 = CALENDAR_DATE ( 2021, 15, 11 ) ;
#73 = DIRECTION ( 'NONE',  ( -3.491481338843133355E-15, 1.224646799147353207E-16, -1.000000000000000000 ) ) ;
#74 = COORDINATED_UNIVERSAL_TIME_OFFSET ( 1, 0, .AHEAD. ) ;
#75 = DIRECTION ( 'NONE',  ( -4.275831445896958607E-31, -1.000000000000000000, -1.224646799147353207E-16 ) ) ;
#76 = AXIS2_PLACEMENT_3D ( 'NONE', #89, #12, #44 ) ;
#77 = MANIFOLD_SOLID_BREP ( 'Corps-Déplacer/Copier1[1]', #55 ) ;
#78 = CONICAL_SURFACE ( 'NONE', #20, 2.500000000000002665, 0.7853981633974479459 ) ;
#79 = VERTEX_POINT ( 'NONE', #66 ) ;
#80 = APPROVAL_PERSON_ORGANIZATION ( #41, #190, #104 ) ;
#81 = PRODUCT_DEFINITION_FORMATION_WITH_SPECIFIED_SOURCE ( 'ANY', '', #151, .NOT_KNOWN. ) ;
#82 = EDGE_LOOP ( 'NONE', ( #123 ) ) ;
#83 = CARTESIAN_POINT ( 'NONE',  ( 1.990144363140586139E-13, -6.980486755139912911E-15, 57.00000000000000000 ) ) ;
#84 = APPROVAL_STATUS ( 'not_yet_approved' ) ;
#85 = AXIS2_PLACEMENT_3D ( 'NONE', #173, #29, #128 ) ;
#86 = EDGE_LOOP ( 'NONE', ( #179 ) ) ;
#87 = DATE_AND_TIME ( #24, #117 ) ;
#88 = DIRECTION ( 'NONE',  ( 4.275831445896959482E-31, 1.000000000000000000, 1.224646799147353207E-16 ) ) ;
#89 = CARTESIAN_POINT ( 'NONE',  ( -3.206816838010677856E-31, 1.124799933034399755E-32, -9.184688465421452921E-17 ) ) ;
#90 = DESIGN_CONTEXT ( 'detailed design', #144, 'design' ) ;
#91 = ADVANCED_FACE ( 'NONE', ( #200 ), #181, .F. ) ;
#92 = AXIS2_PLACEMENT_3D ( 'NONE', #186, #61, #43 ) ;
#93 = CC_DESIGN_APPROVAL ( #105, ( #81 ) ) ;
#94 = PERSON_AND_ORGANIZATION ( #141, #142 ) ;
#95 = EDGE_CURVE ( 'NONE', #15, #15, #23, .T. ) ;
#96 = AXIS2_PLACEMENT_3D ( 'NONE', #184, #106, #109 ) ;
#97 = CALENDAR_DATE ( 2021, 15, 11 ) ;
#98 = DIRECTION ( 'NONE',  ( 0.0000000000000000000, 1.000000000000000000, 0.0000000000000000000 ) ) ;
#99 = LOCAL_TIME ( 15, 31, 24.00000000000000000, #42 ) ;
#100 = EDGE_LOOP ( 'NONE', ( #136 ) ) ;
#101 = EDGE_LOOP ( 'NONE', ( #5 ) ) ;
#102 = APPROVAL ( #153, 'UNSPECIFIED' ) ;
#103 = PERSON_AND_ORGANIZATION ( #141, #142 ) ;
#104 = APPROVAL_ROLE ( '' ) ;
#105 = APPROVAL ( #84, 'UNSPECIFIED' ) ;
#106 = DIRECTION ( 'NONE',  ( -3.491481338843133355E-15, 1.224646799147353207E-16, -1.000000000000000000 ) ) ;
#107 = DATE_TIME_ROLE ( 'classification_date' ) ;
#108 = PLANE ( 'NONE',  #202 ) ;
#109 = DIRECTION ( 'NONE',  ( 0.0000000000000000000, 1.000000000000000000, 0.0000000000000000000 ) ) ;
#110 = SECURITY_CLASSIFICATION ( '', '', #183 ) ;
#111 = CARTESIAN_POINT ( 'NONE',  ( 1.972686956446370535E-13, 2.999999999999995559, 56.50000000000000000 ) ) ;
#112 = APPROVAL_DATE_TIME ( #39, #102 ) ;
#113 = PERSON_AND_ORGANIZATION ( #141, #142 ) ;
#114 = ADVANCED_BREP_SHAPE_REPRESENTATION ( '28965', ( #77, #4, #52 ), #130 ) ;
#115 = ORIENTED_EDGE ( 'NONE', *, *, #182, .F. ) ;
#116 = DIRECTION ( 'NONE',  ( 4.275831445896959482E-31, 1.000000000000000000, 1.224646799147353207E-16 ) ) ;
#117 = LOCAL_TIME ( 15, 31, 24.00000000000000000, #165 ) ;
#118 = APPLICATION_CONTEXT ( 'configuration controlled 3d designs of mechanical parts and assemblies' ) ;
#119 = FACE_OUTER_BOUND ( 'NONE', #145, .T. ) ;
#120 = PERSON_AND_ORGANIZATION ( #141, #142 ) ;
#121 = FACE_OUTER_BOUND ( 'NONE', #146, .T. ) ;
#122 = PERSON_AND_ORGANIZATION_ROLE ( 'design_supplier' ) ;
#123 = ORIENTED_EDGE ( 'NONE', *, *, #95, .F. ) ;
#124 = APPROVAL_DATE_TIME ( #59, #105 ) ;
#125 = FACE_OUTER_BOUND ( 'NONE', #132, .T. ) ;
#126 = FACE_OUTER_BOUND ( 'NONE', #148, .T. ) ;
#127 = APPLICATION_PROTOCOL_DEFINITION ( 'international standard', 'config_control_design', 1994, #144 ) ;
#128 = DIRECTION ( 'NONE',  ( 0.0000000000000000000, 1.000000000000000000, 0.0000000000000000000 ) ) ;
#129 = VERTEX_POINT ( 'NONE', #30 ) ;
#130 =( GEOMETRIC_REPRESENTATION_CONTEXT ( 3 ) GLOBAL_UNCERTAINTY_ASSIGNED_CONTEXT ( ( #171 ) ) GLOBAL_UNIT_ASSIGNED_CONTEXT ( ( #175, #14, #140 ) ) REPRESENTATION_CONTEXT ( 'NONE', 'WORKASPACE' ) );
#131 = EDGE_CURVE ( 'NONE', #79, #79, #172, .T. ) ;
#132 = EDGE_LOOP ( 'NONE', ( #34 ) ) ;
#133 = CARTESIAN_POINT ( 'NONE',  ( 0.0000000000000000000, 0.0000000000000000000, 0.0000000000000000000 ) ) ;
#134 = CALENDAR_DATE ( 2021, 15, 11 ) ;
#135 = FACE_OUTER_BOUND ( 'NONE', #100, .T. ) ;
#136 = ORIENTED_EDGE ( 'NONE', *, *, #131, .T. ) ;
#137 = CIRCLE ( 'NONE', #150, 3.000000000000002665 ) ;
#138 = CC_DESIGN_PERSON_AND_ORGANIZATION_ASSIGNMENT ( #3, #57, ( #45 ) ) ;
#139 = CC_DESIGN_APPROVAL ( #102, ( #45 ) ) ;
#140 =( NAMED_UNIT ( * ) SI_UNIT ( $, .STERADIAN. ) SOLID_ANGLE_UNIT ( ) );
#141 = PERSON ( 'UNSPECIFIED', 'UNSPECIFIED', 'UNSPECIFIED', ('UNSPECIFIED'), ('UNSPECIFIED'), ('UNSPECIFIED') ) ;
#142 = ORGANIZATION ( 'UNSPECIFIED', 'UNSPECIFIED', '' ) ;
#143 = CC_DESIGN_PERSON_AND_ORGANIZATION_ASSIGNMENT ( #94, #203, ( #151 ) ) ;
#144 = APPLICATION_CONTEXT ( 'configuration controlled 3d designs of mechanical parts and assemblies' ) ;
#145 = EDGE_LOOP ( 'NONE', ( #58 ) ) ;
#146 = EDGE_LOOP ( 'NONE', ( #115 ) ) ;
#147 = ADVANCED_FACE ( 'NONE', ( #126 ), #108, .F. ) ;
#148 = EDGE_LOOP ( 'NONE', ( #6 ) ) ;
#149 = PERSON_AND_ORGANIZATION_ROLE ( 'classification_officer' ) ;
#150 = AXIS2_PLACEMENT_3D ( 'NONE', #64, #166, #25 ) ;
#151 = PRODUCT ( '28965', '28965', '', ( #49 ) ) ;
#152 = CARTESIAN_POINT ( 'NONE',  ( 4.538925740496073362E-14, 2.249639673992782033E-32, 13.00000000000000000 ) ) ;
#153 = APPROVAL_STATUS ( 'not_yet_approved' ) ;
#154 = LOCAL_TIME ( 15, 31, 24.00000000000000000, #163 ) ;
#155 = CARTESIAN_POINT ( 'NONE',  ( 6.413860661669502591E-31, 2.999999999999995559, 1.837002704357763860E-16 ) ) ;
#156 = AXIS2_PLACEMENT_3D ( 'NONE', #54, #38, #75 ) ;
#157 = CC_DESIGN_SECURITY_CLASSIFICATION ( #110, ( #81 ) ) ;
#158 = DIRECTION ( 'NONE',  ( 1.000000000000000000, 0.0000000000000000000, 0.0000000000000000000 ) ) ;
#159 = CC_DESIGN_PERSON_AND_ORGANIZATION_ASSIGNMENT ( #103, #149, ( #110 ) ) ;
#160 = FACE_OUTER_BOUND ( 'NONE', #101, .T. ) ;
#161 = AXIS2_PLACEMENT_3D ( 'NONE', #133, #73, #116 ) ;
#162 = CYLINDRICAL_SURFACE ( 'NONE', #161, 3.000000000000000000 ) ;
#163 = COORDINATED_UNIVERSAL_TIME_OFFSET ( 1, 0, .AHEAD. ) ;
#164 = FACE_OUTER_BOUND ( 'NONE', #82, .T. ) ;
#165 = COORDINATED_UNIVERSAL_TIME_OFFSET ( 1, 0, .AHEAD. ) ;
#166 = DIRECTION ( 'NONE',  ( -3.491481338843133355E-15, 1.224646799147353207E-16, -1.000000000000000000 ) ) ;
#167 = CARTESIAN_POINT ( 'NONE',  ( -6.413633676021355712E-31, 2.249599866068799511E-32, -1.836937693084290584E-16 ) ) ;
#168 = DATE_AND_TIME ( #134, #2 ) ;
#169 = CC_DESIGN_PERSON_AND_ORGANIZATION_ASSIGNMENT ( #180, #122, ( #81 ) ) ;
#170 = CARTESIAN_POINT ( 'NONE',  ( 1.990144363140586139E-13, 1.874699728327313799E-32, 57.00000000000000000 ) ) ;
#171 = UNCERTAINTY_MEASURE_WITH_UNIT (LENGTH_MEASURE( 1.000000000000000082E-05 ), #175, 'distance_accuracy_value', 'NONE');
#172 = CIRCLE ( 'NONE', #92, 2.999999999999997335 ) ;
#173 = CARTESIAN_POINT ( 'NONE',  ( 1.990144363140586139E-13, -6.980486755139912911E-15, 57.00000000000000000 ) ) ;
#174 = CARTESIAN_POINT ( 'NONE',  ( 4.538925740496073362E-14, 2.999999999999995559, 13.00000000000000000 ) ) ;
#175 =( LENGTH_UNIT ( ) NAMED_UNIT ( * ) SI_UNIT ( .MILLI., .METRE. ) );
#176 = APPROVAL_ROLE ( '' ) ;
#177 = ADVANCED_FACE ( 'NONE', ( #125 ), #188, .F. ) ;
#178 = DIRECTION ( 'NONE',  ( -3.491481338843133355E-15, 1.224646799147353207E-16, -1.000000000000000000 ) ) ;
#179 = ORIENTED_EDGE ( 'NONE', *, *, #187, .F. ) ;
#180 = PERSON_AND_ORGANIZATION ( #141, #142 ) ;
#181 = PLANE ( 'NONE',  #194 ) ;
#182 = EDGE_CURVE ( 'NONE', #48, #48, #192, .T. ) ;
#183 = SECURITY_CLASSIFICATION_LEVEL ( 'unclassified' ) ;
#184 = CARTESIAN_POINT ( 'NONE',  ( 4.538925740496073362E-14, -1.592040838891559095E-15, 13.00000000000000000 ) ) ;
#185 = DIRECTION ( 'NONE',  ( -4.275831445896958607E-31, -1.000000000000000000, -1.224646799147353207E-16 ) ) ;
#186 = CARTESIAN_POINT ( 'NONE',  ( 4.538925740496073362E-14, -1.592040838891559095E-15, 13.00000000000000000 ) ) ;
#187 = EDGE_CURVE ( 'NONE', #46, #46, #137, .T. ) ;
#188 = PLANE ( 'NONE',  #76 ) ;
#189 = PERSON_AND_ORGANIZATION ( #141, #142 ) ;
#190 = APPROVAL ( #27, 'UNSPECIFIED' ) ;
#191 = CC_DESIGN_DATE_AND_TIME_ASSIGNMENT ( #168, #107, ( #110 ) ) ;
#192 = CIRCLE ( 'NONE', #96, 2.999999999999997335 ) ;
#193 = EDGE_CURVE ( 'NONE', #129, #129, #65, .T. ) ;
#194 = AXIS2_PLACEMENT_3D ( 'NONE', #152, #60, #185 ) ;
#195 = CYLINDRICAL_SURFACE ( 'NONE', #62, 2.999999999999996447 ) ;
#196 = ORIENTED_EDGE ( 'NONE', *, *, #193, .T. ) ;
#197 = CC_DESIGN_APPROVAL ( #190, ( #110 ) ) ;
#198 = CARTESIAN_POINT ( 'NONE',  ( 0.0000000000000000000, 0.0000000000000000000, 0.0000000000000000000 ) ) ;
#199 = PERSON_AND_ORGANIZATION_ROLE ( 'creator' ) ;
#200 = FACE_OUTER_BOUND ( 'NONE', #56, .T. ) ;
#201 = ORIENTED_EDGE ( 'NONE', *, *, #182, .T. ) ;
#202 = AXIS2_PLACEMENT_3D ( 'NONE', #170, #36, #63 ) ;
#203 = PERSON_AND_ORGANIZATION_ROLE ( 'design_owner' ) ;
ENDSEC;
END-ISO-10303-21;
