ISO-10303-21;
HEADER;
FILE_DESCRIPTION (( 'STEP AP203' ),
    '1' );
FILE_NAME ('28959.step',
    '2021-11-15T14:31:24',
    ( '' ),
    ( '' ),
    'SwSTEP 2.0',
    'SolidWorks 2019',
    '' );
FILE_SCHEMA (( 'CONFIG_CONTROL_DESIGN' ));
ENDSEC;

DATA;
#1 = CALENDAR_DATE ( 2021, 15, 11 ) ;
#2 = APPROVAL ( #123, 'UNSPECIFIED' ) ;
#3 = CC_DESIGN_APPROVAL ( #217, ( #153 ) ) ;
#4 = COORDINATED_UNIVERSAL_TIME_OFFSET ( 1, 0, .AHEAD. ) ;
#5 = CC_DESIGN_PERSON_AND_ORGANIZATION_ASSIGNMENT ( #148, #20, ( #151 ) ) ;
#6 = CYLINDRICAL_SURFACE ( 'NONE', #42, 2.999999999999999556 ) ;
#7 = MANIFOLD_SOLID_BREP ( 'Corps-Déplacer/Copier1[2]', #92 ) ;
#8 = DIRECTION ( 'NONE',  ( -3.491481338843133355E-15, 1.224646799147353207E-16, -1.000000000000000000 ) ) ;
#9 = CARTESIAN_POINT ( 'NONE',  ( 2.793185071074506053E-14, -1.500000000000000000, 7.999999999999998224 ) ) ;
#10 = COORDINATED_UNIVERSAL_TIME_OFFSET ( 1, 0, .AHEAD. ) ;
#11 = EDGE_CURVE ( 'NONE', #154, #154, #211, .T. ) ;
#12 = DIRECTION ( 'NONE',  ( 3.491481338843133355E-15, -1.244996138440932305E-16, 1.000000000000000000 ) ) ;
#13 =( GEOMETRIC_REPRESENTATION_CONTEXT ( 3 ) GLOBAL_UNCERTAINTY_ASSIGNED_CONTEXT ( ( #97 ) ) GLOBAL_UNIT_ASSIGNED_CONTEXT ( ( #85, #158, #105 ) ) REPRESENTATION_CONTEXT ( 'NONE', 'WORKASPACE' ) );
#14 = DIRECTION ( 'NONE',  ( 3.491481338843133355E-15, -1.244996138440932305E-16, 1.000000000000000000 ) ) ;
#15 = ORIENTED_EDGE ( 'NONE', *, *, #11, .F. ) ;
#16 = AXIS2_PLACEMENT_3D ( 'NONE', #59, #197, #98 ) ;
#17 = ORIENTED_EDGE ( 'NONE', *, *, #165, .F. ) ;
#18 = CALENDAR_DATE ( 2021, 15, 11 ) ;
#19 = ORIENTED_EDGE ( 'NONE', *, *, #165, .T. ) ;
#20 = PERSON_AND_ORGANIZATION_ROLE ( 'design_owner' ) ;
#21 = AXIS2_PLACEMENT_3D ( 'NONE', #205, #188, #33 ) ;
#22 = APPROVAL_PERSON_ORGANIZATION ( #223, #2, #192 ) ;
#23 = DIRECTION ( 'NONE',  ( 0.0000000000000000000, 0.0000000000000000000, 1.000000000000000000 ) ) ;
#24 = APPLICATION_PROTOCOL_DEFINITION ( 'international standard', 'config_control_design', 1994, #45 ) ;
#25 = PLANE ( 'NONE',  #46 ) ;
#26 = AXIS2_PLACEMENT_3D ( 'NONE', #69, #12, #83 ) ;
#27 = CC_DESIGN_PERSON_AND_ORGANIZATION_ASSIGNMENT ( #102, #169, ( #133 ) ) ;
#28 = ADVANCED_FACE ( 'NONE', ( #159, #184 ), #6, .T. ) ;
#29 = FACE_OUTER_BOUND ( 'NONE', #222, .T. ) ;
#30 = DIRECTION ( 'NONE',  ( 0.0000000000000000000, 1.000000000000000000, 0.0000000000000000000 ) ) ;
#31 = DATE_AND_TIME ( #216, #35 ) ;
#32 = CYLINDRICAL_SURFACE ( 'NONE', #194, 1.499999999999999556 ) ;
#33 = DIRECTION ( 'NONE',  ( 0.0000000000000000000, 1.000000000000000000, 0.0000000000000000000 ) ) ;
#34 = DIRECTION ( 'NONE',  ( -4.275831445896958607E-31, -1.000000000000000000, -1.224646799147353207E-16 ) ) ;
#35 = LOCAL_TIME ( 15, 31, 24.00000000000000000, #10 ) ;
#36 = EDGE_CURVE ( 'NONE', #202, #202, #167, .T. ) ;
#37 = EDGE_LOOP ( 'NONE', ( #19 ) ) ;
#38 = ORIENTED_EDGE ( 'NONE', *, *, #136, .F. ) ;
#39 = PERSON_AND_ORGANIZATION ( #198, #47 ) ;
#40 = CIRCLE ( 'NONE', #100, 3.000000000000002665 ) ;
#41 = APPROVAL_STATUS ( 'not_yet_approved' ) ;
#42 = AXIS2_PLACEMENT_3D ( 'NONE', #130, #152, #126 ) ;
#43 = DIRECTION ( 'NONE',  ( 0.0000000000000000000, -1.000000000000000000, 0.0000000000000000000 ) ) ;
#44 = SECURITY_CLASSIFICATION_LEVEL ( 'unclassified' ) ;
#45 = APPLICATION_CONTEXT ( 'configuration controlled 3d designs of mechanical parts and assemblies' ) ;
#46 = AXIS2_PLACEMENT_3D ( 'NONE', #96, #163, #34 ) ;
#47 = ORGANIZATION ( 'UNSPECIFIED', 'UNSPECIFIED', '' ) ;
#48 = CARTESIAN_POINT ( 'NONE',  ( -1.304064235289483108E-30, -1.500000000000000000, -3.734988415322796916E-16 ) ) ;
#49 = AXIS2_PLACEMENT_3D ( 'NONE', #81, #62, #171 ) ;
#50 = VERTEX_POINT ( 'NONE', #48 ) ;
#51 = CARTESIAN_POINT ( 'NONE',  ( 2.793185071074506053E-14, -1.500000000000000000, 7.999999999999998224 ) ) ;
#52 = CC_DESIGN_APPROVAL ( #174, ( #133 ) ) ;
#53 = ORIENTED_EDGE ( 'NONE', *, *, #221, .F. ) ;
#54 = ADVANCED_FACE ( 'NONE', ( #113 ), #181, .F. ) ;
#55 = APPROVAL_STATUS ( 'not_yet_approved' ) ;
#56 = APPLICATION_PROTOCOL_DEFINITION ( 'international standard', 'config_control_design', 1994, #68 ) ;
#57 = DIRECTION ( 'NONE',  ( 1.000000000000000000, 0.0000000000000000000, 0.0000000000000000000 ) ) ;
#58 = DATE_AND_TIME ( #193, #119 ) ;
#59 = CARTESIAN_POINT ( 'NONE',  ( 2.793185071074506684E-14, 2.249639673992782580E-32, 8.000000000000000000 ) ) ;
#60 = PRODUCT_DEFINITION_SHAPE ( 'NONE', 'NONE',  #109 ) ;
#61 = DIRECTION ( 'NONE',  ( 0.0000000000000000000, -1.000000000000000000, 0.0000000000000000000 ) ) ;
#62 = DIRECTION ( 'NONE',  ( 3.491481338843133355E-15, -1.244996138440932305E-16, 1.000000000000000000 ) ) ;
#63 = EDGE_LOOP ( 'NONE', ( #116 ) ) ;
#64 = CARTESIAN_POINT ( 'NONE',  ( 1.990144363140586139E-13, -6.980486755139912911E-15, 57.00000000000000000 ) ) ;
#65 = CIRCLE ( 'NONE', #70, 2.500000000000002665 ) ;
#66 = EDGE_LOOP ( 'NONE', ( #190 ) ) ;
#67 = CC_DESIGN_PERSON_AND_ORGANIZATION_ASSIGNMENT ( #178, #86, ( #153 ) ) ;
#68 = APPLICATION_CONTEXT ( 'configuration controlled 3d designs of mechanical parts and assemblies' ) ;
#69 = CARTESIAN_POINT ( 'NONE',  ( -6.520321176447415539E-31, 2.325023077099249721E-32, -1.867494207661398458E-16 ) ) ;
#70 = AXIS2_PLACEMENT_3D ( 'NONE', #115, #160, #218 ) ;
#71 = ORIENTED_EDGE ( 'NONE', *, *, #95, .T. ) ;
#72 = PERSON_AND_ORGANIZATION ( #198, #47 ) ;
#73 = ORIENTED_EDGE ( 'NONE', *, *, #36, .F. ) ;
#74 = DATE_AND_TIME ( #1, #199 ) ;
#75 = DATE_AND_TIME ( #18, #175 ) ;
#76 = MECHANICAL_CONTEXT ( 'NONE', #45, 'mechanical' ) ;
#77 = DIRECTION ( 'NONE',  ( -4.275831445896958607E-31, -1.000000000000000000, -1.224646799147353207E-16 ) ) ;
#78 = ADVANCED_FACE ( 'NONE', ( #149 ), #210, .T. ) ;
#79 = AXIS2_PLACEMENT_3D ( 'NONE', #195, #180, #43 ) ;
#80 = CC_DESIGN_SECURITY_CLASSIFICATION ( #133, ( #153 ) ) ;
#81 = CARTESIAN_POINT ( 'NONE',  ( 2.793185071074506053E-14, -1.734723475976807094E-15, 7.999999999999998224 ) ) ;
#82 = DIRECTION ( 'NONE',  ( -3.491481338843133355E-15, 1.224646799147353207E-16, -1.000000000000000000 ) ) ;
#83 = DIRECTION ( 'NONE',  ( -4.346880784298276734E-31, -1.000000000000000000, -1.244996138440932305E-16 ) ) ;
#84 = ADVANCED_FACE ( 'NONE', ( #129 ), #25, .F. ) ;
#85 =( LENGTH_UNIT ( ) NAMED_UNIT ( * ) SI_UNIT ( .MILLI., .METRE. ) );
#86 = PERSON_AND_ORGANIZATION_ROLE ( 'design_supplier' ) ;
#87 = AXIS2_PLACEMENT_3D ( 'NONE', #138, #103, #61 ) ;
#88 = MANIFOLD_SOLID_BREP ( 'Corps-Déplacer/Copier1[1]', #206 ) ;
#89 = ORIENTED_EDGE ( 'NONE', *, *, #221, .T. ) ;
#90 = DATE_AND_TIME ( #110, #213 ) ;
#91 = APPROVAL_ROLE ( '' ) ;
#92 = CLOSED_SHELL ( 'NONE', ( #78, #125, #84 ) ) ;
#93 = APPROVAL_PERSON_ORGANIZATION ( #131, #174, #91 ) ;
#94 = CARTESIAN_POINT ( 'NONE',  ( 2.793185071074506684E-14, 2.249639673992782580E-32, 8.000000000000000000 ) ) ;
#95 = EDGE_CURVE ( 'NONE', #215, #215, #65, .T. ) ;
#96 = CARTESIAN_POINT ( 'NONE',  ( -3.206816838010677856E-31, 1.124799933034399755E-32, -9.184688465421452921E-17 ) ) ;
#97 = UNCERTAINTY_MEASURE_WITH_UNIT (LENGTH_MEASURE( 1.000000000000000082E-05 ), #85, 'distance_accuracy_value', 'NONE');
#98 = DIRECTION ( 'NONE',  ( -4.275831445896958607E-31, -1.000000000000000000, -1.224646799147353207E-16 ) ) ;
#99 = FACE_OUTER_BOUND ( 'NONE', #107, .T. ) ;
#100 = AXIS2_PLACEMENT_3D ( 'NONE', #219, #8, #220 ) ;
#101 = DIRECTION ( 'NONE',  ( -4.346880784298277610E-31, -1.000000000000000000, -1.244996138440932305E-16 ) ) ;
#102 = PERSON_AND_ORGANIZATION ( #198, #47 ) ;
#103 = DIRECTION ( 'NONE',  ( 3.491481338843133355E-15, -1.244996138440932305E-16, 1.000000000000000000 ) ) ;
#104 = CC_DESIGN_PERSON_AND_ORGANIZATION_ASSIGNMENT ( #209, #122, ( #153 ) ) ;
#105 =( NAMED_UNIT ( * ) SI_UNIT ( $, .STERADIAN. ) SOLID_ANGLE_UNIT ( ) );
#106 = APPROVAL_PERSON_ORGANIZATION ( #72, #217, #191 ) ;
#107 = EDGE_LOOP ( 'NONE', ( #176 ) ) ;
#108 = COORDINATED_UNIVERSAL_TIME_OFFSET ( 1, 0, .AHEAD. ) ;
#109 = PRODUCT_DEFINITION ( 'UNKNOWN', '', #153, #111 ) ;
#110 = CALENDAR_DATE ( 2021, 15, 11 ) ;
#111 = DESIGN_CONTEXT ( 'detailed design', #68, 'design' ) ;
#112 = CARTESIAN_POINT ( 'NONE',  ( 0.0000000000000000000, 0.0000000000000000000, 0.0000000000000000000 ) ) ;
#113 = FACE_OUTER_BOUND ( 'NONE', #207, .T. ) ;
#114 = PLANE ( 'NONE',  #157 ) ;
#115 = CARTESIAN_POINT ( 'NONE',  ( 1.990144363140586139E-13, -6.980486755139912911E-15, 57.00000000000000000 ) ) ;
#116 = ORIENTED_EDGE ( 'NONE', *, *, #36, .T. ) ;
#117 = CARTESIAN_POINT ( 'NONE',  ( 0.0000000000000000000, 0.0000000000000000000, 0.0000000000000000000 ) ) ;
#118 = ADVANCED_FACE ( 'NONE', ( #99 ), #114, .F. ) ;
#119 = LOCAL_TIME ( 15, 31, 24.00000000000000000, #4 ) ;
#120 = EDGE_LOOP ( 'NONE', ( #17 ) ) ;
#121 = CIRCLE ( 'NONE', #26, 1.500000000000000000 ) ;
#122 = PERSON_AND_ORGANIZATION_ROLE ( 'creator' ) ;
#123 = APPROVAL_STATUS ( 'not_yet_approved' ) ;
#124 = DATE_TIME_ROLE ( 'classification_date' ) ;
#125 = ADVANCED_FACE ( 'NONE', ( #29, #166 ), #32, .T. ) ;
#126 = DIRECTION ( 'NONE',  ( 4.275831445896959482E-31, 1.000000000000000000, 1.224646799147353207E-16 ) ) ;
#127 = CONICAL_SURFACE ( 'NONE', #183, 2.500000000000002665, 0.7853981633974479459 ) ;
#128 = COORDINATED_UNIVERSAL_TIME_OFFSET ( 1, 0, .AHEAD. ) ;
#129 = FACE_OUTER_BOUND ( 'NONE', #203, .T. ) ;
#130 = CARTESIAN_POINT ( 'NONE',  ( 0.0000000000000000000, 0.0000000000000000000, 0.0000000000000000000 ) ) ;
#131 = PERSON_AND_ORGANIZATION ( #198, #47 ) ;
#132 = PRODUCT_RELATED_PRODUCT_CATEGORY ( 'detail', '', ( #151 ) ) ;
#133 = SECURITY_CLASSIFICATION ( '', '', #44 ) ;
#134 = CARTESIAN_POINT ( 'NONE',  ( 1.972686956446370535E-13, 2.999999999999995559, 56.50000000000000000 ) ) ;
#135 = CARTESIAN_POINT ( 'NONE',  ( 4.421503566283302108E-14, 2.999999999999997335, 12.66368952654440427 ) ) ;
#136 = EDGE_CURVE ( 'NONE', #201, #201, #40, .T. ) ;
#137 = SHAPE_DEFINITION_REPRESENTATION ( #60, #185 ) ;
#138 = CARTESIAN_POINT ( 'NONE',  ( 2.793185071074506053E-14, -9.959969107527456471E-16, 7.999999999999998224 ) ) ;
#139 = EDGE_LOOP ( 'NONE', ( #38 ) ) ;
#140 = VERTEX_POINT ( 'NONE', #51 ) ;
#141 = CC_DESIGN_PERSON_AND_ORGANIZATION_ASSIGNMENT ( #39, #196, ( #109 ) ) ;
#142 = AXIS2_PLACEMENT_3D ( 'NONE', #94, #162, #77 ) ;
#143 = ORIENTED_EDGE ( 'NONE', *, *, #11, .T. ) ;
#144 = APPROVAL_DATE_TIME ( #74, #217 ) ;
#145 = CC_DESIGN_APPROVAL ( #2, ( #109 ) ) ;
#146 = AXIS2_PLACEMENT_3D ( 'NONE', #112, #23, #57 ) ;
#147 = DATE_TIME_ROLE ( 'creation_date' ) ;
#148 = PERSON_AND_ORGANIZATION ( #198, #47 ) ;
#149 = FACE_OUTER_BOUND ( 'NONE', #37, .T. ) ;
#150 = CIRCLE ( 'NONE', #87, 1.499999999999998890 ) ;
#151 = PRODUCT ( '28959', '28959', '', ( #76 ) ) ;
#152 = DIRECTION ( 'NONE',  ( -3.491481338843133355E-15, 1.224646799147353207E-16, -1.000000000000000000 ) ) ;
#153 = PRODUCT_DEFINITION_FORMATION_WITH_SPECIFIED_SOURCE ( 'ANY', '', #151, .NOT_KNOWN. ) ;
#154 = VERTEX_POINT ( 'NONE', #135 ) ;
#155 = ADVANCED_FACE ( 'NONE', ( #186, #173 ), #127, .T. ) ;
#156 = FACE_OUTER_BOUND ( 'NONE', #63, .T. ) ;
#157 = AXIS2_PLACEMENT_3D ( 'NONE', #214, #82, #187 ) ;
#158 =( NAMED_UNIT ( * ) PLANE_ANGLE_UNIT ( ) SI_UNIT ( $, .RADIAN. ) );
#159 = FACE_OUTER_BOUND ( 'NONE', #66, .T. ) ;
#160 = DIRECTION ( 'NONE',  ( -3.491481338843133355E-15, 1.224646799147353207E-16, -1.000000000000000000 ) ) ;
#161 = APPROVAL_DATE_TIME ( #90, #2 ) ;
#162 = DIRECTION ( 'NONE',  ( 3.491481338843133355E-15, -1.224646799147353207E-16, 1.000000000000000000 ) ) ;
#163 = DIRECTION ( 'NONE',  ( 3.491481338843133355E-15, -1.224646799147353207E-16, 1.000000000000000000 ) ) ;
#164 = TOROIDAL_SURFACE ( 'NONE', #49, 9.500000000000000000, 8.000000000000000000 ) ;
#165 = EDGE_CURVE ( 'NONE', #140, #140, #150, .T. ) ;
#166 = FACE_OUTER_BOUND ( 'NONE', #120, .T. ) ;
#167 = CIRCLE ( 'NONE', #79, 1.499999999999998890 ) ;
#168 = DIRECTION ( 'NONE',  ( -3.491481338843133355E-15, 1.224646799147353207E-16, -1.000000000000000000 ) ) ;
#169 = PERSON_AND_ORGANIZATION_ROLE ( 'classification_officer' ) ;
#170 = EDGE_LOOP ( 'NONE', ( #71 ) ) ;
#171 = DIRECTION ( 'NONE',  ( -4.407578600077156464E-31, -1.000000000000000000, -1.244996138440932305E-16 ) ) ;
#172 = APPROVAL_DATE_TIME ( #58, #174 ) ;
#173 = FACE_BOUND ( 'NONE', #170, .T. ) ;
#174 = APPROVAL ( #41, 'UNSPECIFIED' ) ;
#175 = LOCAL_TIME ( 15, 31, 24.00000000000000000, #182 ) ;
#176 = ORIENTED_EDGE ( 'NONE', *, *, #95, .F. ) ;
#177 = EDGE_LOOP ( 'NONE', ( #15 ) ) ;
#178 = PERSON_AND_ORGANIZATION ( #198, #47 ) ;
#179 = CC_DESIGN_DATE_AND_TIME_ASSIGNMENT ( #31, #124, ( #133 ) ) ;
#180 = DIRECTION ( 'NONE',  ( 3.491481338843133355E-15, -1.244996138440932305E-16, 1.000000000000000000 ) ) ;
#181 = PLANE ( 'NONE',  #142 ) ;
#182 = COORDINATED_UNIVERSAL_TIME_OFFSET ( 1, 0, .AHEAD. ) ;
#183 = AXIS2_PLACEMENT_3D ( 'NONE', #64, #168, #30 ) ;
#184 = FACE_OUTER_BOUND ( 'NONE', #177, .T. ) ;
#185 = ADVANCED_BREP_SHAPE_REPRESENTATION ( '28959', ( #88, #7, #146 ), #13 ) ;
#186 = FACE_OUTER_BOUND ( 'NONE', #139, .T. ) ;
#187 = DIRECTION ( 'NONE',  ( 4.275831445896958607E-31, 1.000000000000000000, 1.224646799147353207E-16 ) ) ;
#188 = DIRECTION ( 'NONE',  ( -3.491481338843133355E-15, 1.244996138440932305E-16, -1.000000000000000000 ) ) ;
#189 = ADVANCED_FACE ( 'NONE', ( #156, #200 ), #164, .F. ) ;
#190 = ORIENTED_EDGE ( 'NONE', *, *, #136, .T. ) ;
#191 = APPROVAL_ROLE ( '' ) ;
#192 = APPROVAL_ROLE ( '' ) ;
#193 = CALENDAR_DATE ( 2021, 15, 11 ) ;
#194 = AXIS2_PLACEMENT_3D ( 'NONE', #117, #14, #101 ) ;
#195 = CARTESIAN_POINT ( 'NONE',  ( 2.793185071074506053E-14, -9.959969107527456471E-16, 7.999999999999998224 ) ) ;
#196 = PERSON_AND_ORGANIZATION_ROLE ( 'creator' ) ;
#197 = DIRECTION ( 'NONE',  ( 3.491481338843133355E-15, -1.224646799147353207E-16, 1.000000000000000000 ) ) ;
#198 = PERSON ( 'UNSPECIFIED', 'UNSPECIFIED', 'UNSPECIFIED', ('UNSPECIFIED'), ('UNSPECIFIED'), ('UNSPECIFIED') ) ;
#199 = LOCAL_TIME ( 15, 31, 24.00000000000000000, #108 ) ;
#200 = FACE_OUTER_BOUND ( 'NONE', #208, .T. ) ;
#201 = VERTEX_POINT ( 'NONE', #134 ) ;
#202 = VERTEX_POINT ( 'NONE', #9 ) ;
#203 = EDGE_LOOP ( 'NONE', ( #53 ) ) ;
#204 = CARTESIAN_POINT ( 'NONE',  ( 1.990144363140586139E-13, 2.499999999999995559, 57.00000000000000000 ) ) ;
#205 = CARTESIAN_POINT ( 'NONE',  ( 4.421503566283302108E-14, -2.315351021120327496E-15, 12.66368952654440427 ) ) ;
#206 = CLOSED_SHELL ( 'NONE', ( #28, #155, #118, #189, #54 ) ) ;
#207 = EDGE_LOOP ( 'NONE', ( #73 ) ) ;
#208 = EDGE_LOOP ( 'NONE', ( #143 ) ) ;
#209 = PERSON_AND_ORGANIZATION ( #198, #47 ) ;
#210 = PLANE ( 'NONE',  #16 ) ;
#211 = CIRCLE ( 'NONE', #21, 2.999999999999999556 ) ;
#212 = CC_DESIGN_DATE_AND_TIME_ASSIGNMENT ( #75, #147, ( #109 ) ) ;
#213 = LOCAL_TIME ( 15, 31, 24.00000000000000000, #128 ) ;
#214 = CARTESIAN_POINT ( 'NONE',  ( 1.990144363140586139E-13, 1.874699728327313799E-32, 57.00000000000000000 ) ) ;
#215 = VERTEX_POINT ( 'NONE', #204 ) ;
#216 = CALENDAR_DATE ( 2021, 15, 11 ) ;
#217 = APPROVAL ( #55, 'UNSPECIFIED' ) ;
#218 = DIRECTION ( 'NONE',  ( 0.0000000000000000000, 1.000000000000000000, 0.0000000000000000000 ) ) ;
#219 = CARTESIAN_POINT ( 'NONE',  ( 1.972686956446370535E-13, -6.919254415182545337E-15, 56.50000000000000000 ) ) ;
#220 = DIRECTION ( 'NONE',  ( 0.0000000000000000000, 1.000000000000000000, 0.0000000000000000000 ) ) ;
#221 = EDGE_CURVE ( 'NONE', #50, #50, #121, .T. ) ;
#222 = EDGE_LOOP ( 'NONE', ( #89 ) ) ;
#223 = PERSON_AND_ORGANIZATION ( #198, #47 ) ;
ENDSEC;
END-ISO-10303-21;
