ISO-10303-21;
HEADER;
FILE_DESCRIPTION (( 'STEP AP203' ),
    '1' );
FILE_NAME ('28954.step',
    '2021-11-01T10:35:06',
    ( '' ),
    ( '' ),
    'SwSTEP 2.0',
    'SolidWorks 2019',
    '' );
FILE_SCHEMA (( 'CONFIG_CONTROL_DESIGN' ));
ENDSEC;

DATA;
#1 = DIRECTION ( 'NONE',  ( 0.0000000000000000000, 1.000000000000000000, 0.0000000000000000000 ) ) ;
#2 = ORGANIZATION ( 'UNSPECIFIED', 'UNSPECIFIED', '' ) ;
#3 = DATE_AND_TIME ( #19, #224 ) ;
#4 = PERSON_AND_ORGANIZATION ( #218, #2 ) ;
#5 = LOCAL_TIME ( 11, 35, 6.000000000000000000, #29 ) ;
#6 = EDGE_LOOP ( 'NONE', ( #179 ) ) ;
#7 = ADVANCED_FACE ( 'NONE', ( #211 ), #236, .F. ) ;
#8 = PERSON_AND_ORGANIZATION ( #218, #2 ) ;
#9 = EDGE_LOOP ( 'NONE', ( #160 ) ) ;
#10 = ORIENTED_EDGE ( 'NONE', *, *, #105, .T. ) ;
#11 = ADVANCED_FACE ( 'NONE', ( #182, #50 ), #59, .F. ) ;
#12 = CIRCLE ( 'NONE', #219, 4.749999999999998224 ) ;
#13 = ORIENTED_EDGE ( 'NONE', *, *, #227, .F. ) ;
#14 = DIRECTION ( 'NONE',  ( 3.491481338843133355E-15, -1.227517819005651059E-16, 1.000000000000000000 ) ) ;
#15 = PLANE ( 'NONE',  #47 ) ;
#16 = FACE_OUTER_BOUND ( 'NONE', #9, .T. ) ;
#17 = CC_DESIGN_SECURITY_CLASSIFICATION ( #144, ( #190 ) ) ;
#18 = DIRECTION ( 'NONE',  ( 3.491481338843133355E-15, -1.224646799147353207E-16, 1.000000000000000000 ) ) ;
#19 = CALENDAR_DATE ( 2021, 1, 11 ) ;
#20 = CIRCLE ( 'NONE', #201, 4.749999999999998224 ) ;
#21 = DIRECTION ( 'NONE',  ( 1.000000000000000000, 0.0000000000000000000, 0.0000000000000000000 ) ) ;
#22 = CARTESIAN_POINT ( 'NONE',  ( 2.513866563967056016E-13, -8.817456953860941711E-15, 72.00000000000000000 ) ) ;
#23 = FACE_OUTER_BOUND ( 'NONE', #158, .T. ) ;
#24 = APPROVAL_PERSON_ORGANIZATION ( #117, #131, #185 ) ;
#25 = DATE_AND_TIME ( #171, #88 ) ;
#26 = AXIS2_PLACEMENT_3D ( 'NONE', #54, #34, #108 ) ;
#27 = EDGE_LOOP ( 'NONE', ( #225 ) ) ;
#28 = PRODUCT_RELATED_PRODUCT_CATEGORY ( 'detail', '', ( #113 ) ) ;
#29 = COORDINATED_UNIVERSAL_TIME_OFFSET ( 1, 0, .AHEAD. ) ;
#30 = ORIENTED_EDGE ( 'NONE', *, *, #238, .F. ) ;
#31 = AXIS2_PLACEMENT_3D ( 'NONE', #55, #90, #127 ) ;
#32 = DIRECTION ( 'NONE',  ( -3.491481338843133355E-15, 1.227517819005651059E-16, -1.000000000000000000 ) ) ;
#33 = FACE_BOUND ( 'NONE', #107, .T. ) ;
#34 = DIRECTION ( 'NONE',  ( 3.491481338843133355E-15, -1.226656096638776648E-16, 1.000000000000000000 ) ) ;
#35 = CC_DESIGN_PERSON_AND_ORGANIZATION_ASSIGNMENT ( #102, #175, ( #190 ) ) ;
#36 = CYLINDRICAL_SURFACE ( 'NONE', #214, 4.999999999999997335 ) ;
#37 = DIRECTION ( 'NONE',  ( 4.275831445896958607E-31, 1.000000000000000000, 1.224646799147353207E-16 ) ) ;
#38 = ADVANCED_FACE ( 'NONE', ( #16, #162 ), #36, .T. ) ;
#39 = VERTEX_POINT ( 'NONE', #200 ) ;
#40 = AXIS2_PLACEMENT_3D ( 'NONE', #193, #32, #184 ) ;
#41 = PERSON_AND_ORGANIZATION_ROLE ( 'design_owner' ) ;
#42 = CARTESIAN_POINT ( 'NONE',  ( -3.897390652239128342E-30, -4.550000000000000711, -1.116257047941287072E-15 ) ) ;
#43 = CIRCLE ( 'NONE', #72, 4.500000000000000888 ) ;
#44 = CC_DESIGN_PERSON_AND_ORGANIZATION_ASSIGNMENT ( #8, #157, ( #61 ) ) ;
#45 = ORIENTED_EDGE ( 'NONE', *, *, #235, .F. ) ;
#46 = PERSON_AND_ORGANIZATION ( #218, #2 ) ;
#47 = AXIS2_PLACEMENT_3D ( 'NONE', #148, #163, #212 ) ;
#48 = EDGE_LOOP ( 'NONE', ( #232 ) ) ;
#49 = COORDINATED_UNIVERSAL_TIME_OFFSET ( 1, 0, .AHEAD. ) ;
#50 = FACE_OUTER_BOUND ( 'NONE', #204, .T. ) ;
#51 = CLOSED_SHELL ( 'NONE', ( #38, #109, #7, #11, #101 ) ) ;
#52 = CARTESIAN_POINT ( 'NONE',  ( 2.513866563967056016E-13, -8.817456953860941711E-15, 72.00000000000000000 ) ) ;
#53 = CC_DESIGN_DATE_AND_TIME_ASSIGNMENT ( #25, #159, ( #144 ) ) ;
#54 = CARTESIAN_POINT ( 'NONE',  ( -1.948695326119564171E-30, 4.186431156629213213E-32, -5.581285239706435362E-16 ) ) ;
#55 = CARTESIAN_POINT ( 'NONE',  ( 6.633814543801952113E-14, -1.734723475976807094E-15, 19.00000000000000000 ) ) ;
#56 = CIRCLE ( 'NONE', #195, 4.750000000000000000 ) ;
#57 = EDGE_CURVE ( 'NONE', #132, #132, #56, .T. ) ;
#58 = DIRECTION ( 'NONE',  ( 0.0000000000000000000, 0.0000000000000000000, 1.000000000000000000 ) ) ;
#59 = TOROIDAL_SURFACE ( 'NONE', #31, 12.74999999999999645, 8.000000000000000000 ) ;
#60 = DIRECTION ( 'NONE',  ( 3.491481338843133355E-15, -1.227517819005651059E-16, 1.000000000000000000 ) ) ;
#61 = PRODUCT_DEFINITION ( 'UNKNOWN', '', #190, #230 ) ;
#62 = CALENDAR_DATE ( 2021, 1, 11 ) ;
#63 = DATE_AND_TIME ( #80, #176 ) ;
#64 = EDGE_LOOP ( 'NONE', ( #229 ) ) ;
#65 = AXIS2_PLACEMENT_3D ( 'NONE', #70, #234, #37 ) ;
#66 = COORDINATED_UNIVERSAL_TIME_OFFSET ( 1, 0, .AHEAD. ) ;
#67 = DIRECTION ( 'NONE',  ( -4.257318824434942550E-31, -1.000000000000000000, -1.198328716957662834E-16 ) ) ;
#68 = AXIS2_PLACEMENT_3D ( 'NONE', #96, #169, #1 ) ;
#69 = CARTESIAN_POINT ( 'NONE',  ( 6.982962677686247975E-16, -2.453312193277549474E-17, 0.1999999999999994560 ) ) ;
#70 = CARTESIAN_POINT ( 'NONE',  ( 2.513866563967056016E-13, 3.374459510989167028E-32, 72.00000000000000000 ) ) ;
#71 = DIRECTION ( 'NONE',  ( -3.491481338843133355E-15, 1.224646799147353207E-16, -1.000000000000000000 ) ) ;
#72 = AXIS2_PLACEMENT_3D ( 'NONE', #22, #189, #149 ) ;
#73 = PRODUCT_DEFINITION_SHAPE ( 'NONE', 'NONE',  #61 ) ;
#74 = VERTEX_POINT ( 'NONE', #133 ) ;
#75 = PERSON_AND_ORGANIZATION ( #218, #2 ) ;
#76 = APPROVAL ( #203, 'UNSPECIFIED' ) ;
#77 = CARTESIAN_POINT ( 'NONE',  ( 6.633814543801952113E-14, -4.750000000000000888, 19.00000000000000000 ) ) ;
#78 = APPROVAL_STATUS ( 'not_yet_approved' ) ;
#79 = DATE_AND_TIME ( #62, #97 ) ;
#80 = CALENDAR_DATE ( 2021, 1, 11 ) ;
#81 = EDGE_LOOP ( 'NONE', ( #103 ) ) ;
#82 = AXIS2_PLACEMENT_3D ( 'NONE', #69, #145, #210 ) ;
#83 = APPROVAL_ROLE ( '' ) ;
#84 = ADVANCED_FACE ( 'NONE', ( #124 ), #164, .T. ) ;
#85 = PLANE ( 'NONE',  #155 ) ;
#86 = DIRECTION ( 'NONE',  ( 0.0000000000000000000, -1.000000000000000000, 0.0000000000000000000 ) ) ;
#87 = CARTESIAN_POINT ( 'NONE',  ( 6.633814543801952113E-14, 3.749399456654636904E-32, 19.00000000000000000 ) ) ;
#88 = LOCAL_TIME ( 11, 35, 6.000000000000000000, #120 ) ;
#89 = FACE_OUTER_BOUND ( 'NONE', #138, .T. ) ;
#90 = DIRECTION ( 'NONE',  ( 3.491481338843133355E-15, -1.227517819005651059E-16, 1.000000000000000000 ) ) ;
#91 =( NAMED_UNIT ( * ) SI_UNIT ( $, .STERADIAN. ) SOLID_ANGLE_UNIT ( ) );
#92 = AXIS2_PLACEMENT_3D ( 'NONE', #130, #58, #21 ) ;
#93 = DIRECTION ( 'NONE',  ( -4.285855558155653280E-31, -1.000000000000000000, -1.227517819005651059E-16 ) ) ;
#94 = APPLICATION_PROTOCOL_DEFINITION ( 'international standard', 'config_control_design', 1994, #141 ) ;
#95 = CC_DESIGN_PERSON_AND_ORGANIZATION_ASSIGNMENT ( #4, #231, ( #144 ) ) ;
#96 = CARTESIAN_POINT ( 'NONE',  ( 2.496409157272840412E-13, -8.756224613903574137E-15, 71.50000000000000000 ) ) ;
#97 = LOCAL_TIME ( 11, 35, 6.000000000000000000, #66 ) ;
#98 = EDGE_CURVE ( 'NONE', #39, #39, #119, .T. ) ;
#99 = SECURITY_CLASSIFICATION_LEVEL ( 'unclassified' ) ;
#100 = ORIENTED_EDGE ( 'NONE', *, *, #235, .T. ) ;
#101 = ADVANCED_FACE ( 'NONE', ( #142 ), #85, .F. ) ;
#102 = PERSON_AND_ORGANIZATION ( #218, #2 ) ;
#103 = ORIENTED_EDGE ( 'NONE', *, *, #199, .F. ) ;
#104 = EDGE_LOOP ( 'NONE', ( #30 ) ) ;
#105 = EDGE_CURVE ( 'NONE', #241, #241, #12, .T. ) ;
#106 = DIRECTION ( 'NONE',  ( 3.491481338843133355E-15, -1.224646799147353207E-16, 1.000000000000000000 ) ) ;
#107 = EDGE_LOOP ( 'NONE', ( #180 ) ) ;
#108 = DIRECTION ( 'NONE',  ( -4.282846870592448247E-31, -1.000000000000000000, -1.226656096638776894E-16 ) ) ;
#109 = ADVANCED_FACE ( 'NONE', ( #207, #33 ), #151, .T. ) ;
#110 = CONICAL_SURFACE ( 'NONE', #82, 4.750000000000000000, 0.7853981633974452814 ) ;
#111 = DIRECTION ( 'NONE',  ( -3.491481338843133355E-15, 1.224646799147353207E-16, -1.000000000000000000 ) ) ;
#112 = APPLICATION_PROTOCOL_DEFINITION ( 'international standard', 'config_control_design', 1994, #233 ) ;
#113 = PRODUCT ( '28954', '28954', '', ( #220 ) ) ;
#114 = CC_DESIGN_PERSON_AND_ORGANIZATION_ASSIGNMENT ( #172, #177, ( #190 ) ) ;
#115 =( GEOMETRIC_REPRESENTATION_CONTEXT ( 3 ) GLOBAL_UNCERTAINTY_ASSIGNED_CONTEXT ( ( #205 ) ) GLOBAL_UNIT_ASSIGNED_CONTEXT ( ( #166, #215, #91 ) ) REPRESENTATION_CONTEXT ( 'NONE', 'WORKASPACE' ) );
#116 = VERTEX_POINT ( 'NONE', #150 ) ;
#117 = PERSON_AND_ORGANIZATION ( #218, #2 ) ;
#118 = VERTEX_POINT ( 'NONE', #152 ) ;
#119 = CIRCLE ( 'NONE', #40, 4.999999999999997335 ) ;
#120 = COORDINATED_UNIVERSAL_TIME_OFFSET ( 1, 0, .AHEAD. ) ;
#121 = APPROVAL_DATE_TIME ( #228, #76 ) ;
#122 = EDGE_LOOP ( 'NONE', ( #100 ) ) ;
#123 = SHAPE_DEFINITION_REPRESENTATION ( #73, #188 ) ;
#124 = FACE_OUTER_BOUND ( 'NONE', #122, .T. ) ;
#125 = APPROVAL_PERSON_ORGANIZATION ( #46, #76, #154 ) ;
#126 = FACE_OUTER_BOUND ( 'NONE', #81, .T. ) ;
#127 = DIRECTION ( 'NONE',  ( -4.388237416095931361E-31, -1.000000000000000000, -1.227517819005651059E-16 ) ) ;
#128 = AXIS2_PLACEMENT_3D ( 'NONE', #217, #134, #93 ) ;
#129 = CARTESIAN_POINT ( 'NONE',  ( 0.0000000000000000000, 0.0000000000000000000, 0.0000000000000000000 ) ) ;
#130 = CARTESIAN_POINT ( 'NONE',  ( 0.0000000000000000000, 0.0000000000000000000, 0.0000000000000000000 ) ) ;
#131 = APPROVAL ( #78, 'UNSPECIFIED' ) ;
#132 = VERTEX_POINT ( 'NONE', #197 ) ;
#133 = CARTESIAN_POINT ( 'NONE',  ( 6.633814543801952113E-14, -4.750000000000000888, 19.00000000000000000 ) ) ;
#134 = DIRECTION ( 'NONE',  ( 3.491481338843133355E-15, -1.227517819005651059E-16, 1.000000000000000000 ) ) ;
#135 = DATE_TIME_ROLE ( 'creation_date' ) ;
#136 = CC_DESIGN_APPROVAL ( #131, ( #61 ) ) ;
#137 = PERSON_AND_ORGANIZATION ( #218, #2 ) ;
#138 = EDGE_LOOP ( 'NONE', ( #223 ) ) ;
#139 = DIRECTION ( 'NONE',  ( 3.491481338843133355E-15, -1.226656096638776648E-16, 1.000000000000000000 ) ) ;
#140 = APPROVAL ( #178, 'UNSPECIFIED' ) ;
#141 = APPLICATION_CONTEXT ( 'configuration controlled 3d designs of mechanical parts and assemblies' ) ;
#142 = FACE_OUTER_BOUND ( 'NONE', #64, .T. ) ;
#143 = CC_DESIGN_APPROVAL ( #76, ( #190 ) ) ;
#144 = SECURITY_CLASSIFICATION ( '', '', #99 ) ;
#145 = DIRECTION ( 'NONE',  ( 3.491481338843133355E-15, -1.226656096638776648E-16, 1.000000000000000000 ) ) ;
#146 = MANIFOLD_SOLID_BREP ( 'Corps-Déplacer/Copier1[2]', #186 ) ;
#147 = MANIFOLD_SOLID_BREP ( 'Corps-Déplacer/Copier1[1]', #51 ) ;
#148 = CARTESIAN_POINT ( 'NONE',  ( -8.551702076470480934E-31, 2.999533309458101739E-32, -2.449304821232125005E-16 ) ) ;
#149 = DIRECTION ( 'NONE',  ( 0.0000000000000000000, 1.000000000000000000, 0.0000000000000000000 ) ) ;
#150 = CARTESIAN_POINT ( 'NONE',  ( 2.513866563967056016E-13, 4.499999999999992006, 72.00000000000000000 ) ) ;
#151 = CONICAL_SURFACE ( 'NONE', #167, 4.500000000000000888, 0.7853981633974482790 ) ;
#152 = CARTESIAN_POINT ( 'NONE',  ( 2.496409157272840412E-13, 4.999999999999992006, 71.50000000000000000 ) ) ;
#153 = DIRECTION ( 'NONE',  ( 0.0000000000000000000, -1.000000000000000000, 0.0000000000000000000 ) ) ;
#154 = APPROVAL_ROLE ( '' ) ;
#155 = AXIS2_PLACEMENT_3D ( 'NONE', #87, #106, #181 ) ;
#156 = CC_DESIGN_DATE_AND_TIME_ASSIGNMENT ( #79, #135, ( #61 ) ) ;
#157 = PERSON_AND_ORGANIZATION_ROLE ( 'creator' ) ;
#158 = EDGE_LOOP ( 'NONE', ( #45 ) ) ;
#159 = DATE_TIME_ROLE ( 'classification_date' ) ;
#160 = ORIENTED_EDGE ( 'NONE', *, *, #238, .T. ) ;
#161 = CARTESIAN_POINT ( 'NONE',  ( 6.633814543801952113E-14, -2.332283856110737258E-15, 19.00000000000000000 ) ) ;
#162 = FACE_OUTER_BOUND ( 'NONE', #48, .T. ) ;
#163 = DIRECTION ( 'NONE',  ( 3.491481338843133355E-15, -1.224646799147353207E-16, 1.000000000000000000 ) ) ;
#164 = PLANE ( 'NONE',  #213 ) ;
#165 = ADVANCED_FACE ( 'NONE', ( #126 ), #15, .F. ) ;
#166 =( LENGTH_UNIT ( ) NAMED_UNIT ( * ) SI_UNIT ( .MILLI., .METRE. ) );
#167 = AXIS2_PLACEMENT_3D ( 'NONE', #52, #71, #194 ) ;
#168 = APPROVAL_PERSON_ORGANIZATION ( #137, #140, #83 ) ;
#169 = DIRECTION ( 'NONE',  ( -3.491481338843133355E-15, 1.224646799147353207E-16, -1.000000000000000000 ) ) ;
#170 = COORDINATED_UNIVERSAL_TIME_OFFSET ( 1, 0, .AHEAD. ) ;
#171 = CALENDAR_DATE ( 2021, 1, 11 ) ;
#172 = PERSON_AND_ORGANIZATION ( #218, #2 ) ;
#173 = CC_DESIGN_PERSON_AND_ORGANIZATION_ASSIGNMENT ( #75, #41, ( #113 ) ) ;
#174 = ORIENTED_EDGE ( 'NONE', *, *, #98, .T. ) ;
#175 = PERSON_AND_ORGANIZATION_ROLE ( 'creator' ) ;
#176 = LOCAL_TIME ( 11, 35, 6.000000000000000000, #49 ) ;
#177 = PERSON_AND_ORGANIZATION_ROLE ( 'design_supplier' ) ;
#178 = APPROVAL_STATUS ( 'not_yet_approved' ) ;
#179 = ORIENTED_EDGE ( 'NONE', *, *, #199, .T. ) ;
#180 = ORIENTED_EDGE ( 'NONE', *, *, #227, .T. ) ;
#181 = DIRECTION ( 'NONE',  ( -4.275831445896958607E-31, -1.000000000000000000, -1.224646799147353207E-16 ) ) ;
#182 = FACE_OUTER_BOUND ( 'NONE', #192, .T. ) ;
#183 = ADVANCED_FACE ( 'NONE', ( #237, #89 ), #110, .T. ) ;
#184 = DIRECTION ( 'NONE',  ( 0.0000000000000000000, 1.000000000000000000, 0.0000000000000000000 ) ) ;
#185 = APPROVAL_ROLE ( '' ) ;
#186 = CLOSED_SHELL ( 'NONE', ( #242, #84, #183, #165 ) ) ;
#187 = CARTESIAN_POINT ( 'NONE',  ( 6.633814543801952113E-14, -2.332283856110737258E-15, 19.00000000000000000 ) ) ;
#188 = ADVANCED_BREP_SHAPE_REPRESENTATION ( '28954', ( #147, #146, #92 ), #115 ) ;
#189 = DIRECTION ( 'NONE',  ( -3.491481338843133355E-15, 1.224646799147353207E-16, -1.000000000000000000 ) ) ;
#190 = PRODUCT_DEFINITION_FORMATION_WITH_SPECIFIED_SOURCE ( 'ANY', '', #113, .NOT_KNOWN. ) ;
#191 = APPROVAL_DATE_TIME ( #63, #140 ) ;
#192 = EDGE_LOOP ( 'NONE', ( #10 ) ) ;
#193 = CARTESIAN_POINT ( 'NONE',  ( 7.326633893537088163E-14, -1.978301491901009185E-15, 20.98431348329845036 ) ) ;
#194 = DIRECTION ( 'NONE',  ( 0.0000000000000000000, 1.000000000000000000, 0.0000000000000000000 ) ) ;
#195 = AXIS2_PLACEMENT_3D ( 'NONE', #196, #139, #67 ) ;
#196 = CARTESIAN_POINT ( 'NONE',  ( 6.982962677686247975E-16, -2.453312193277549474E-17, 0.1999999999999994560 ) ) ;
#197 = CARTESIAN_POINT ( 'NONE',  ( 6.982962677686228254E-16, -4.750000000000000000, 0.1999999999999989009 ) ) ;
#198 = CIRCLE ( 'NONE', #26, 4.550000000000000711 ) ;
#199 = EDGE_CURVE ( 'NONE', #243, #243, #198, .T. ) ;
#200 = CARTESIAN_POINT ( 'NONE',  ( 7.326633893537088163E-14, 4.999999999999995559, 20.98431348329845036 ) ) ;
#201 = AXIS2_PLACEMENT_3D ( 'NONE', #187, #60, #153 ) ;
#202 = EDGE_LOOP ( 'NONE', ( #13 ) ) ;
#203 = APPROVAL_STATUS ( 'not_yet_approved' ) ;
#204 = EDGE_LOOP ( 'NONE', ( #174 ) ) ;
#205 = UNCERTAINTY_MEASURE_WITH_UNIT (LENGTH_MEASURE( 1.000000000000000082E-05 ), #166, 'distance_accuracy_value', 'NONE');
#206 = DIRECTION ( 'NONE',  ( 4.275831445896959482E-31, 1.000000000000000000, 1.224646799147353207E-16 ) ) ;
#207 = FACE_OUTER_BOUND ( 'NONE', #104, .T. ) ;
#208 = CIRCLE ( 'NONE', #68, 5.000000000000000888 ) ;
#209 = CC_DESIGN_APPROVAL ( #140, ( #144 ) ) ;
#210 = DIRECTION ( 'NONE',  ( -4.257318824434942550E-31, -1.000000000000000000, -1.198328716957662834E-16 ) ) ;
#211 = FACE_OUTER_BOUND ( 'NONE', #202, .T. ) ;
#212 = DIRECTION ( 'NONE',  ( -4.275831445896958607E-31, -1.000000000000000000, -1.224646799147353207E-16 ) ) ;
#213 = AXIS2_PLACEMENT_3D ( 'NONE', #239, #18, #240 ) ;
#214 = AXIS2_PLACEMENT_3D ( 'NONE', #129, #111, #206 ) ;
#215 =( NAMED_UNIT ( * ) PLANE_ANGLE_UNIT ( ) SI_UNIT ( $, .RADIAN. ) );
#216 = CYLINDRICAL_SURFACE ( 'NONE', #128, 4.749999999999997335 ) ;
#217 = CARTESIAN_POINT ( 'NONE',  ( -6.413731847436034514E-31, 0.0000000000000000000, -1.836965810494968570E-16 ) ) ;
#218 = PERSON ( 'UNSPECIFIED', 'UNSPECIFIED', 'UNSPECIFIED', ('UNSPECIFIED'), ('UNSPECIFIED'), ('UNSPECIFIED') ) ;
#219 = AXIS2_PLACEMENT_3D ( 'NONE', #161, #14, #86 ) ;
#220 = MECHANICAL_CONTEXT ( 'NONE', #141, 'mechanical' ) ;
#221 = FACE_OUTER_BOUND ( 'NONE', #27, .T. ) ;
#222 = APPROVAL_DATE_TIME ( #3, #131 ) ;
#223 = ORIENTED_EDGE ( 'NONE', *, *, #57, .F. ) ;
#224 = LOCAL_TIME ( 11, 35, 6.000000000000000000, #170 ) ;
#225 = ORIENTED_EDGE ( 'NONE', *, *, #57, .T. ) ;
#226 = CALENDAR_DATE ( 2021, 1, 11 ) ;
#227 = EDGE_CURVE ( 'NONE', #116, #116, #43, .T. ) ;
#228 = DATE_AND_TIME ( #226, #5 ) ;
#229 = ORIENTED_EDGE ( 'NONE', *, *, #105, .F. ) ;
#230 = DESIGN_CONTEXT ( 'detailed design', #233, 'design' ) ;
#231 = PERSON_AND_ORGANIZATION_ROLE ( 'classification_officer' ) ;
#232 = ORIENTED_EDGE ( 'NONE', *, *, #98, .F. ) ;
#233 = APPLICATION_CONTEXT ( 'configuration controlled 3d designs of mechanical parts and assemblies' ) ;
#234 = DIRECTION ( 'NONE',  ( -3.491481338843133355E-15, 1.224646799147353207E-16, -1.000000000000000000 ) ) ;
#235 = EDGE_CURVE ( 'NONE', #74, #74, #20, .T. ) ;
#236 = PLANE ( 'NONE',  #65 ) ;
#237 = FACE_BOUND ( 'NONE', #6, .T. ) ;
#238 = EDGE_CURVE ( 'NONE', #118, #118, #208, .T. ) ;
#239 = CARTESIAN_POINT ( 'NONE',  ( 6.633814543801952113E-14, 3.749399456654636904E-32, 19.00000000000000000 ) ) ;
#240 = DIRECTION ( 'NONE',  ( -4.275831445896958607E-31, -1.000000000000000000, -1.224646799147353207E-16 ) ) ;
#241 = VERTEX_POINT ( 'NONE', #77 ) ;
#242 = ADVANCED_FACE ( 'NONE', ( #23, #221 ), #216, .T. ) ;
#243 = VERTEX_POINT ( 'NONE', #42 ) ;
ENDSEC;
END-ISO-10303-21;
