ISO-10303-21;
HEADER;
FILE_DESCRIPTION (( 'STEP AP203' ),
    '1' );
FILE_NAME ('28953.step',
    '2021-11-01T10:35:06',
    ( '' ),
    ( '' ),
    'SwSTEP 2.0',
    'SolidWorks 2019',
    '' );
FILE_SCHEMA (( 'CONFIG_CONTROL_DESIGN' ));
ENDSEC;

DATA;
#1 = EDGE_LOOP ( 'NONE', ( #171 ) ) ;
#2 = PERSON_AND_ORGANIZATION ( #7, #198 ) ;
#3 = ORIENTED_EDGE ( 'NONE', *, *, #69, .T. ) ;
#4 = APPROVAL_PERSON_ORGANIZATION ( #2, #78, #5 ) ;
#5 = APPROVAL_ROLE ( '' ) ;
#6 = ORIENTED_EDGE ( 'NONE', *, *, #207, .T. ) ;
#7 = PERSON ( 'UNSPECIFIED', 'UNSPECIFIED', 'UNSPECIFIED', ('UNSPECIFIED'), ('UNSPECIFIED'), ('UNSPECIFIED') ) ;
#8 = DIRECTION ( 'NONE',  ( 3.491481338843133355E-15, -1.224646799147353207E-16, 1.000000000000000000 ) ) ;
#9 = CARTESIAN_POINT ( 'NONE',  ( 0.0000000000000000000, 0.0000000000000000000, 0.0000000000000000000 ) ) ;
#10 = CIRCLE ( 'NONE', #53, 4.500000000000000000 ) ;
#11 = DIRECTION ( 'NONE',  ( -3.491481338843133355E-15, 1.224646799147353207E-16, -1.000000000000000000 ) ) ;
#12 = EDGE_CURVE ( 'NONE', #93, #93, #50, .T. ) ;
#13 = DIRECTION ( 'NONE',  ( 3.491481338843133355E-15, -1.226656096638776648E-16, 1.000000000000000000 ) ) ;
#14 = CYLINDRICAL_SURFACE ( 'NONE', #125, 4.499999999999998224 ) ;
#15 = AXIS2_PLACEMENT_3D ( 'NONE', #230, #211, #122 ) ;
#16 = PERSON_AND_ORGANIZATION_ROLE ( 'design_owner' ) ;
#17 = CLOSED_SHELL ( 'NONE', ( #23, #173, #105, #142, #213 ) ) ;
#18 = APPROVAL ( #92, 'UNSPECIFIED' ) ;
#19 = DIRECTION ( 'NONE',  ( -3.491481338843133355E-15, 1.224646799147353207E-16, -1.000000000000000000 ) ) ;
#20 = DATE_AND_TIME ( #203, #36 ) ;
#21 = EDGE_LOOP ( 'NONE', ( #44 ) ) ;
#22 = ORIENTED_EDGE ( 'NONE', *, *, #180, .F. ) ;
#23 = ADVANCED_FACE ( 'NONE', ( #26, #120 ), #179, .T. ) ;
#24 = DIRECTION ( 'NONE',  ( 3.491481338843133355E-15, -1.227517819005651059E-16, 1.000000000000000000 ) ) ;
#25 = DIRECTION ( 'NONE',  ( 3.491481338843133355E-15, -1.226656096638776648E-16, 1.000000000000000000 ) ) ;
#26 = FACE_OUTER_BOUND ( 'NONE', #187, .T. ) ;
#27 = CC_DESIGN_APPROVAL ( #18, ( #43 ) ) ;
#28 = CARTESIAN_POINT ( 'NONE',  ( -1.841624154354752834E-30, 3.810259861773943051E-32, -5.274621215546740645E-16 ) ) ;
#29 = DIRECTION ( 'NONE',  ( 0.0000000000000000000, -1.000000000000000000, 0.0000000000000000000 ) ) ;
#30 = CARTESIAN_POINT ( 'NONE',  ( 6.982962677686249947E-16, -2.453312193277550091E-17, 0.1999999999999995115 ) ) ;
#31 = AXIS2_PLACEMENT_3D ( 'NONE', #231, #67, #212 ) ;
#32 = DIRECTION ( 'NONE',  ( 3.491481338843133355E-15, -1.226656096638776648E-16, 1.000000000000000000 ) ) ;
#33 = PERSON_AND_ORGANIZATION_ROLE ( 'creator' ) ;
#34 = CC_DESIGN_PERSON_AND_ORGANIZATION_ASSIGNMENT ( #117, #226, ( #181 ) ) ;
#35 = ADVANCED_BREP_SHAPE_REPRESENTATION ( '28953', ( #144, #219, #38 ), #206 ) ;
#36 = LOCAL_TIME ( 11, 35, 6.000000000000000000, #114 ) ;
#37 = DIRECTION ( 'NONE',  ( -4.279844320860524021E-31, -1.000000000000000000, -1.204669080539449344E-16 ) ) ;
#38 = AXIS2_PLACEMENT_3D ( 'NONE', #109, #52, #182 ) ;
#39 = APPROVAL_ROLE ( '' ) ;
#40 = ORIENTED_EDGE ( 'NONE', *, *, #221, .T. ) ;
#41 = ORIENTED_EDGE ( 'NONE', *, *, #12, .T. ) ;
#42 = CIRCLE ( 'NONE', #237, 4.500000000000000888 ) ;
#43 = PRODUCT_DEFINITION ( 'UNKNOWN', '', #91, #209 ) ;
#44 = ORIENTED_EDGE ( 'NONE', *, *, #131, .T. ) ;
#45 = CC_DESIGN_APPROVAL ( #78, ( #91 ) ) ;
#46 = EDGE_LOOP ( 'NONE', ( #40 ) ) ;
#47 = CIRCLE ( 'NONE', #186, 4.499999999999997335 ) ;
#48 = FACE_OUTER_BOUND ( 'NONE', #139, .T. ) ;
#49 = CARTESIAN_POINT ( 'NONE',  ( -8.551702076470480934E-31, 2.999533309458101739E-32, -2.449304821232125005E-16 ) ) ;
#50 = CIRCLE ( 'NONE', #199, 4.999999999999997335 ) ;
#51 = FACE_OUTER_BOUND ( 'NONE', #96, .T. ) ;
#52 = DIRECTION ( 'NONE',  ( 0.0000000000000000000, 0.0000000000000000000, 1.000000000000000000 ) ) ;
#53 = AXIS2_PLACEMENT_3D ( 'NONE', #233, #13, #210 ) ;
#54 = VERTEX_POINT ( 'NONE', #151 ) ;
#55 = CC_DESIGN_DATE_AND_TIME_ASSIGNMENT ( #76, #95, ( #43 ) ) ;
#56 = FACE_OUTER_BOUND ( 'NONE', #189, .T. ) ;
#57 = AXIS2_PLACEMENT_3D ( 'NONE', #49, #8, #102 ) ;
#58 = PERSON_AND_ORGANIZATION_ROLE ( 'creator' ) ;
#59 = COORDINATED_UNIVERSAL_TIME_OFFSET ( 1, 0, .AHEAD. ) ;
#60 = ORIENTED_EDGE ( 'NONE', *, *, #152, .F. ) ;
#61 = LOCAL_TIME ( 11, 35, 6.000000000000000000, #238 ) ;
#62 = ADVANCED_FACE ( 'NONE', ( #66, #81 ), #14, .T. ) ;
#63 = APPROVAL_PERSON_ORGANIZATION ( #113, #196, #39 ) ;
#64 = DIRECTION ( 'NONE',  ( 0.0000000000000000000, 1.000000000000000000, 0.0000000000000000000 ) ) ;
#65 = AXIS2_PLACEMENT_3D ( 'NONE', #30, #32, #37 ) ;
#66 = FACE_OUTER_BOUND ( 'NONE', #138, .T. ) ;
#67 = DIRECTION ( 'NONE',  ( 3.491481338843133355E-15, -1.224646799147353207E-16, 1.000000000000000000 ) ) ;
#68 = CARTESIAN_POINT ( 'NONE',  ( 2.496409157272840412E-13, -8.756224613903574137E-15, 71.50000000000000000 ) ) ;
#69 = EDGE_CURVE ( 'NONE', #200, #200, #146, .T. ) ;
#70 = DIRECTION ( 'NONE',  ( 3.491481338843133355E-15, -1.224646799147353207E-16, 1.000000000000000000 ) ) ;
#71 =( LENGTH_UNIT ( ) NAMED_UNIT ( * ) SI_UNIT ( .MILLI., .METRE. ) );
#72 = AXIS2_PLACEMENT_3D ( 'NONE', #68, #145, #214 ) ;
#73 = PERSON_AND_ORGANIZATION ( #7, #198 ) ;
#74 = PERSON_AND_ORGANIZATION ( #7, #198 ) ;
#75 = LOCAL_TIME ( 11, 35, 6.000000000000000000, #59 ) ;
#76 = DATE_AND_TIME ( #220, #61 ) ;
#77 = DATE_TIME_ROLE ( 'classification_date' ) ;
#78 = APPROVAL ( #134, 'UNSPECIFIED' ) ;
#79 = SECURITY_CLASSIFICATION_LEVEL ( 'unclassified' ) ;
#80 = CLOSED_SHELL ( 'NONE', ( #62, #170, #232, #112 ) ) ;
#81 = FACE_OUTER_BOUND ( 'NONE', #192, .T. ) ;
#82 = CIRCLE ( 'NONE', #72, 5.000000000000000888 ) ;
#83 = CC_DESIGN_APPROVAL ( #196, ( #181 ) ) ;
#84 = CARTESIAN_POINT ( 'NONE',  ( 5.586370142149013368E-14, -1.964028510409041694E-15, 16.00000000000000000 ) ) ;
#85 = DIRECTION ( 'NONE',  ( 4.275831445896958607E-31, 1.000000000000000000, 1.224646799147353207E-16 ) ) ;
#86 = CC_DESIGN_PERSON_AND_ORGANIZATION_ASSIGNMENT ( #184, #16, ( #163 ) ) ;
#87 = DIRECTION ( 'NONE',  ( 0.0000000000000000000, 1.000000000000000000, 0.0000000000000000000 ) ) ;
#88 = TOROIDAL_SURFACE ( 'NONE', #15, 12.49999999999999822, 8.000000000000000000 ) ;
#89 = MECHANICAL_CONTEXT ( 'NONE', #185, 'mechanical' ) ;
#90 = COORDINATED_UNIVERSAL_TIME_OFFSET ( 1, 0, .AHEAD. ) ;
#91 = PRODUCT_DEFINITION_FORMATION_WITH_SPECIFIED_SOURCE ( 'ANY', '', #163, .NOT_KNOWN. ) ;
#92 = APPROVAL_STATUS ( 'not_yet_approved' ) ;
#93 = VERTEX_POINT ( 'NONE', #167 ) ;
#94 = CALENDAR_DATE ( 2021, 1, 11 ) ;
#95 = DATE_TIME_ROLE ( 'creation_date' ) ;
#96 = EDGE_LOOP ( 'NONE', ( #60 ) ) ;
#97 = CC_DESIGN_PERSON_AND_ORGANIZATION_ASSIGNMENT ( #73, #33, ( #43 ) ) ;
#98 = ORIENTED_EDGE ( 'NONE', *, *, #152, .T. ) ;
#99 = DATE_AND_TIME ( #118, #75 ) ;
#100 = COORDINATED_UNIVERSAL_TIME_OFFSET ( 1, 0, .AHEAD. ) ;
#101 = DIRECTION ( 'NONE',  ( -4.285855558155653280E-31, -1.000000000000000000, -1.227517819005651059E-16 ) ) ;
#102 = DIRECTION ( 'NONE',  ( -4.275831445896958607E-31, -1.000000000000000000, -1.224646799147353207E-16 ) ) ;
#103 = DIRECTION ( 'NONE',  ( 0.0000000000000000000, -1.000000000000000000, 0.0000000000000000000 ) ) ;
#104 = CARTESIAN_POINT ( 'NONE',  ( -6.413731847436034514E-31, 0.0000000000000000000, -1.836965810494968570E-16 ) ) ;
#105 = ADVANCED_FACE ( 'NONE', ( #162 ), #124, .F. ) ;
#106 = PLANE ( 'NONE',  #31 ) ;
#107 = CARTESIAN_POINT ( 'NONE',  ( 2.496409157272840412E-13, 4.999999999999992006, 71.50000000000000000 ) ) ;
#108 = VERTEX_POINT ( 'NONE', #127 ) ;
#109 = CARTESIAN_POINT ( 'NONE',  ( 0.0000000000000000000, 0.0000000000000000000, 0.0000000000000000000 ) ) ;
#110 = APPLICATION_PROTOCOL_DEFINITION ( 'international standard', 'config_control_design', 1994, #224 ) ;
#111 = CONICAL_SURFACE ( 'NONE', #150, 4.500000000000000888, 0.7853981633974482790 ) ;
#112 = ADVANCED_FACE ( 'NONE', ( #48 ), #121, .F. ) ;
#113 = PERSON_AND_ORGANIZATION ( #7, #198 ) ;
#114 = COORDINATED_UNIVERSAL_TIME_OFFSET ( 1, 0, .AHEAD. ) ;
#115 = LOCAL_TIME ( 11, 35, 6.000000000000000000, #90 ) ;
#116 = APPROVAL_DATE_TIME ( #99, #78 ) ;
#117 = PERSON_AND_ORGANIZATION ( #7, #198 ) ;
#118 = CALENDAR_DATE ( 2021, 1, 11 ) ;
#119 = ORIENTED_EDGE ( 'NONE', *, *, #207, .F. ) ;
#120 = FACE_OUTER_BOUND ( 'NONE', #205, .T. ) ;
#121 = PLANE ( 'NONE',  #57 ) ;
#122 = DIRECTION ( 'NONE',  ( -4.389485975339105858E-31, -1.000000000000000000, -1.227517819005651059E-16 ) ) ;
#123 = CC_DESIGN_PERSON_AND_ORGANIZATION_ASSIGNMENT ( #191, #58, ( #91 ) ) ;
#124 = PLANE ( 'NONE',  #132 ) ;
#125 = AXIS2_PLACEMENT_3D ( 'NONE', #104, #24, #101 ) ;
#126 = CARTESIAN_POINT ( 'NONE',  ( 2.513866563967056016E-13, 3.374459510989167028E-32, 72.00000000000000000 ) ) ;
#127 = CARTESIAN_POINT ( 'NONE',  ( 5.586370142149013368E-14, -4.499999999999999112, 16.00000000000000000 ) ) ;
#128 = LOCAL_TIME ( 11, 35, 6.000000000000000000, #100 ) ;
#129 = DIRECTION ( 'NONE',  ( 0.0000000000000000000, 1.000000000000000000, 0.0000000000000000000 ) ) ;
#130 = CARTESIAN_POINT ( 'NONE',  ( 5.586370142149013368E-14, -4.499999999999999112, 16.00000000000000000 ) ) ;
#131 = EDGE_CURVE ( 'NONE', #218, #218, #47, .T. ) ;
#132 = AXIS2_PLACEMENT_3D ( 'NONE', #126, #175, #85 ) ;
#133 = PERSON_AND_ORGANIZATION ( #7, #198 ) ;
#134 = APPROVAL_STATUS ( 'not_yet_approved' ) ;
#135 = EDGE_LOOP ( 'NONE', ( #98 ) ) ;
#136 = AXIS2_PLACEMENT_3D ( 'NONE', #9, #11, #193 ) ;
#137 = APPROVAL_STATUS ( 'not_yet_approved' ) ;
#138 = EDGE_LOOP ( 'NONE', ( #223 ) ) ;
#139 = EDGE_LOOP ( 'NONE', ( #159 ) ) ;
#140 = FACE_OUTER_BOUND ( 'NONE', #172, .T. ) ;
#141 = CARTESIAN_POINT ( 'NONE',  ( 5.586370142149013368E-14, -1.964028510409041694E-15, 16.00000000000000000 ) ) ;
#142 = ADVANCED_FACE ( 'NONE', ( #164, #140 ), #88, .F. ) ;
#143 = FACE_OUTER_BOUND ( 'NONE', #225, .T. ) ;
#144 = MANIFOLD_SOLID_BREP ( 'Corps-Déplacer/Copier1[1]', #17 ) ;
#145 = DIRECTION ( 'NONE',  ( -3.491481338843133355E-15, 1.224646799147353207E-16, -1.000000000000000000 ) ) ;
#146 = CIRCLE ( 'NONE', #228, 4.300000000000000711 ) ;
#147 = DIRECTION ( 'NONE',  ( -4.275831445896958607E-31, -1.000000000000000000, -1.224646799147353207E-16 ) ) ;
#148 = CARTESIAN_POINT ( 'NONE',  ( 2.513866563967056016E-13, -8.817456953860941711E-15, 72.00000000000000000 ) ) ;
#149 = APPLICATION_PROTOCOL_DEFINITION ( 'international standard', 'config_control_design', 1994, #185 ) ;
#150 = AXIS2_PLACEMENT_3D ( 'NONE', #195, #165, #87 ) ;
#151 = CARTESIAN_POINT ( 'NONE',  ( 6.982962677686231212E-16, -4.500000000000000000, 0.1999999999999989841 ) ) ;
#152 = EDGE_CURVE ( 'NONE', #108, #108, #222, .T. ) ;
#153 = FACE_BOUND ( 'NONE', #158, .T. ) ;
#154 = APPROVAL_ROLE ( '' ) ;
#155 = AXIS2_PLACEMENT_3D ( 'NONE', #84, #194, #103 ) ;
#156 = SHAPE_DEFINITION_REPRESENTATION ( #174, #35 ) ;
#157 = DATE_AND_TIME ( #94, #128 ) ;
#158 = EDGE_LOOP ( 'NONE', ( #3 ) ) ;
#159 = ORIENTED_EDGE ( 'NONE', *, *, #69, .F. ) ;
#160 = PRODUCT_RELATED_PRODUCT_CATEGORY ( 'detail', '', ( #163 ) ) ;
#161 = FACE_BOUND ( 'NONE', #46, .T. ) ;
#162 = FACE_OUTER_BOUND ( 'NONE', #1, .T. ) ;
#163 = PRODUCT ( '28953', '28953', '', ( #89 ) ) ;
#164 = FACE_OUTER_BOUND ( 'NONE', #135, .T. ) ;
#165 = DIRECTION ( 'NONE',  ( -3.491481338843133355E-15, 1.224646799147353207E-16, -1.000000000000000000 ) ) ;
#166 = PLANE ( 'NONE',  #183 ) ;
#167 = CARTESIAN_POINT ( 'NONE',  ( 6.558357410743853561E-14, 4.999999999999995559, 18.78388218141500587 ) ) ;
#168 = CARTESIAN_POINT ( 'NONE',  ( 2.513866563967056016E-13, 4.499999999999992006, 72.00000000000000000 ) ) ;
#169 = DATE_AND_TIME ( #235, #115 ) ;
#170 = ADVANCED_FACE ( 'NONE', ( #177 ), #106, .T. ) ;
#171 = ORIENTED_EDGE ( 'NONE', *, *, #221, .F. ) ;
#172 = EDGE_LOOP ( 'NONE', ( #41 ) ) ;
#173 = ADVANCED_FACE ( 'NONE', ( #143, #161 ), #111, .T. ) ;
#174 = PRODUCT_DEFINITION_SHAPE ( 'NONE', 'NONE',  #43 ) ;
#175 = DIRECTION ( 'NONE',  ( -3.491481338843133355E-15, 1.224646799147353207E-16, -1.000000000000000000 ) ) ;
#176 = CARTESIAN_POINT ( 'NONE',  ( 6.558357410743853561E-14, -2.076449974346731714E-15, 18.78388218141500587 ) ) ;
#177 = FACE_OUTER_BOUND ( 'NONE', #21, .T. ) ;
#178 = DIRECTION ( 'NONE',  ( 3.491481338843133355E-15, -1.227517819005651059E-16, 1.000000000000000000 ) ) ;
#179 = CYLINDRICAL_SURFACE ( 'NONE', #136, 4.999999999999997335 ) ;
#180 = EDGE_CURVE ( 'NONE', #54, #54, #10, .T. ) ;
#181 = SECURITY_CLASSIFICATION ( '', '', #79 ) ;
#182 = DIRECTION ( 'NONE',  ( 1.000000000000000000, 0.0000000000000000000, 0.0000000000000000000 ) ) ;
#183 = AXIS2_PLACEMENT_3D ( 'NONE', #234, #70, #147 ) ;
#184 = PERSON_AND_ORGANIZATION ( #7, #198 ) ;
#185 = APPLICATION_CONTEXT ( 'configuration controlled 3d designs of mechanical parts and assemblies' ) ;
#186 = AXIS2_PLACEMENT_3D ( 'NONE', #141, #178, #29 ) ;
#187 = EDGE_LOOP ( 'NONE', ( #6 ) ) ;
#188 = CONICAL_SURFACE ( 'NONE', #65, 4.500000000000000000, 0.7853981633974452814 ) ;
#189 = EDGE_LOOP ( 'NONE', ( #22 ) ) ;
#190 = CC_DESIGN_DATE_AND_TIME_ASSIGNMENT ( #20, #77, ( #181 ) ) ;
#191 = PERSON_AND_ORGANIZATION ( #7, #198 ) ;
#192 = EDGE_LOOP ( 'NONE', ( #204 ) ) ;
#193 = DIRECTION ( 'NONE',  ( 4.275831445896959482E-31, 1.000000000000000000, 1.224646799147353207E-16 ) ) ;
#194 = DIRECTION ( 'NONE',  ( 3.491481338843133355E-15, -1.227517819005651059E-16, 1.000000000000000000 ) ) ;
#195 = CARTESIAN_POINT ( 'NONE',  ( 2.513866563967056016E-13, -8.817456953860941711E-15, 72.00000000000000000 ) ) ;
#196 = APPROVAL ( #137, 'UNSPECIFIED' ) ;
#197 =( NAMED_UNIT ( * ) SI_UNIT ( $, .STERADIAN. ) SOLID_ANGLE_UNIT ( ) );
#198 = ORGANIZATION ( 'UNSPECIFIED', 'UNSPECIFIED', '' ) ;
#199 = AXIS2_PLACEMENT_3D ( 'NONE', #176, #227, #64 ) ;
#200 = VERTEX_POINT ( 'NONE', #201 ) ;
#201 = CARTESIAN_POINT ( 'NONE',  ( -3.683248308709505667E-30, -4.300000000000000711, -1.054924243109348129E-15 ) ) ;
#202 =( NAMED_UNIT ( * ) PLANE_ANGLE_UNIT ( ) SI_UNIT ( $, .RADIAN. ) );
#203 = CALENDAR_DATE ( 2021, 1, 11 ) ;
#204 = ORIENTED_EDGE ( 'NONE', *, *, #180, .T. ) ;
#205 = EDGE_LOOP ( 'NONE', ( #208 ) ) ;
#206 =( GEOMETRIC_REPRESENTATION_CONTEXT ( 3 ) GLOBAL_UNCERTAINTY_ASSIGNED_CONTEXT ( ( #229 ) ) GLOBAL_UNIT_ASSIGNED_CONTEXT ( ( #71, #202, #197 ) ) REPRESENTATION_CONTEXT ( 'NONE', 'WORKASPACE' ) );
#207 = EDGE_CURVE ( 'NONE', #240, #240, #82, .T. ) ;
#208 = ORIENTED_EDGE ( 'NONE', *, *, #12, .F. ) ;
#209 = DESIGN_CONTEXT ( 'detailed design', #224, 'design' ) ;
#210 = DIRECTION ( 'NONE',  ( -4.279844320860524021E-31, -1.000000000000000000, -1.204669080539449344E-16 ) ) ;
#211 = DIRECTION ( 'NONE',  ( 3.491481338843133355E-15, -1.227517819005651059E-16, 1.000000000000000000 ) ) ;
#212 = DIRECTION ( 'NONE',  ( -4.275831445896958607E-31, -1.000000000000000000, -1.224646799147353207E-16 ) ) ;
#213 = ADVANCED_FACE ( 'NONE', ( #51 ), #166, .F. ) ;
#214 = DIRECTION ( 'NONE',  ( 0.0000000000000000000, 1.000000000000000000, 0.0000000000000000000 ) ) ;
#215 = DIRECTION ( 'NONE',  ( -4.282846870592447371E-31, -1.000000000000000000, -1.226656096638776648E-16 ) ) ;
#216 = VERTEX_POINT ( 'NONE', #168 ) ;
#217 = APPROVAL_PERSON_ORGANIZATION ( #74, #18, #154 ) ;
#218 = VERTEX_POINT ( 'NONE', #130 ) ;
#219 = MANIFOLD_SOLID_BREP ( 'Corps-Déplacer/Copier1[2]', #80 ) ;
#220 = CALENDAR_DATE ( 2021, 1, 11 ) ;
#221 = EDGE_CURVE ( 'NONE', #216, #216, #42, .T. ) ;
#222 = CIRCLE ( 'NONE', #155, 4.499999999999997335 ) ;
#223 = ORIENTED_EDGE ( 'NONE', *, *, #131, .F. ) ;
#224 = APPLICATION_CONTEXT ( 'configuration controlled 3d designs of mechanical parts and assemblies' ) ;
#225 = EDGE_LOOP ( 'NONE', ( #119 ) ) ;
#226 = PERSON_AND_ORGANIZATION_ROLE ( 'classification_officer' ) ;
#227 = DIRECTION ( 'NONE',  ( -3.491481338843133355E-15, 1.227517819005651059E-16, -1.000000000000000000 ) ) ;
#228 = AXIS2_PLACEMENT_3D ( 'NONE', #28, #25, #215 ) ;
#229 = UNCERTAINTY_MEASURE_WITH_UNIT (LENGTH_MEASURE( 1.000000000000000082E-05 ), #71, 'distance_accuracy_value', 'NONE');
#230 = CARTESIAN_POINT ( 'NONE',  ( 5.586370142149013368E-14, -1.734723475976807094E-15, 16.00000000000000000 ) ) ;
#231 = CARTESIAN_POINT ( 'NONE',  ( 5.586370142149013368E-14, 3.749399456654637451E-32, 16.00000000000000000 ) ) ;
#232 = ADVANCED_FACE ( 'NONE', ( #153, #56 ), #188, .T. ) ;
#233 = CARTESIAN_POINT ( 'NONE',  ( 6.982962677686249947E-16, -2.453312193277550091E-17, 0.1999999999999995115 ) ) ;
#234 = CARTESIAN_POINT ( 'NONE',  ( 5.586370142149013368E-14, 3.749399456654637451E-32, 16.00000000000000000 ) ) ;
#235 = CALENDAR_DATE ( 2021, 1, 11 ) ;
#236 = APPROVAL_DATE_TIME ( #169, #18 ) ;
#237 = AXIS2_PLACEMENT_3D ( 'NONE', #148, #19, #129 ) ;
#238 = COORDINATED_UNIVERSAL_TIME_OFFSET ( 1, 0, .AHEAD. ) ;
#239 = CC_DESIGN_PERSON_AND_ORGANIZATION_ASSIGNMENT ( #133, #242, ( #91 ) ) ;
#240 = VERTEX_POINT ( 'NONE', #107 ) ;
#241 = CC_DESIGN_SECURITY_CLASSIFICATION ( #181, ( #91 ) ) ;
#242 = PERSON_AND_ORGANIZATION_ROLE ( 'design_supplier' ) ;
#243 = APPROVAL_DATE_TIME ( #157, #196 ) ;
ENDSEC;
END-ISO-10303-21;
