ISO-10303-21;
HEADER;
FILE_DESCRIPTION (( 'STEP AP203' ),
    '1' );
FILE_NAME ('28951.step',
    '2021-11-01T10:35:05',
    ( '' ),
    ( '' ),
    'SwSTEP 2.0',
    'SolidWorks 2019',
    '' );
FILE_SCHEMA (( 'CONFIG_CONTROL_DESIGN' ));
ENDSEC;

DATA;
#1 = CONICAL_SURFACE ( 'NONE', #101, 4.000000000000000000, 0.7853981633974440602 ) ;
#2 = CARTESIAN_POINT ( 'NONE',  ( 6.982962677686252905E-16, -2.453312193277551015E-17, 0.1999999999999995948 ) ) ;
#3 = CC_DESIGN_PERSON_AND_ORGANIZATION_ASSIGNMENT ( #73, #86, ( #211 ) ) ;
#4 = FACE_OUTER_BOUND ( 'NONE', #242, .T. ) ;
#5 = FACE_OUTER_BOUND ( 'NONE', #186, .T. ) ;
#6 = PERSON_AND_ORGANIZATION ( #223, #11 ) ;
#7 = LOCAL_TIME ( 11, 35, 5.000000000000000000, #195 ) ;
#8 = CARTESIAN_POINT ( 'NONE',  ( 0.0000000000000000000, 0.0000000000000000000, 0.0000000000000000000 ) ) ;
#9 = UNCERTAINTY_MEASURE_WITH_UNIT (LENGTH_MEASURE( 1.000000000000000082E-05 ), #105, 'distance_accuracy_value', 'NONE');
#10 = APPROVAL_ROLE ( '' ) ;
#11 = ORGANIZATION ( 'UNSPECIFIED', 'UNSPECIFIED', '' ) ;
#12 = DATE_AND_TIME ( #141, #7 ) ;
#13 = ORIENTED_EDGE ( 'NONE', *, *, #66, .T. ) ;
#14 = ORIENTED_EDGE ( 'NONE', *, *, #163, .F. ) ;
#15 = AXIS2_PLACEMENT_3D ( 'NONE', #209, #21, #227 ) ;
#16 = ORIENTED_EDGE ( 'NONE', *, *, #163, .T. ) ;
#17 = PERSON_AND_ORGANIZATION_ROLE ( 'design_supplier' ) ;
#18 = CC_DESIGN_PERSON_AND_ORGANIZATION_ASSIGNMENT ( #45, #123, ( #144 ) ) ;
#19 = DIRECTION ( 'NONE',  ( 0.0000000000000000000, 1.000000000000000000, 0.0000000000000000000 ) ) ;
#20 = DIRECTION ( 'NONE',  ( 3.491481338843133355E-15, -1.224646799147353207E-16, 1.000000000000000000 ) ) ;
#21 = DIRECTION ( 'NONE',  ( 3.491481338843133355E-15, -1.226656096638776648E-16, 1.000000000000000000 ) ) ;
#22 = AXIS2_PLACEMENT_3D ( 'NONE', #61, #134, #40 ) ;
#23 = FACE_OUTER_BOUND ( 'NONE', #220, .T. ) ;
#24 = CARTESIAN_POINT ( 'NONE',  ( 2.199633243471174140E-13, 3.374459510989167575E-32, 63.00000000000000000 ) ) ;
#25 = LOCAL_TIME ( 11, 35, 5.000000000000000000, #88 ) ;
#26 = VERTEX_POINT ( 'NONE', #217 ) ;
#27 = DATE_AND_TIME ( #234, #150 ) ;
#28 = CARTESIAN_POINT ( 'NONE',  ( -3.254963621650262419E-30, -3.800000000000001599, -9.322586334454706368E-16 ) ) ;
#29 = LOCAL_TIME ( 11, 35, 5.000000000000000000, #52 ) ;
#30 = PERSON_AND_ORGANIZATION ( #223, #11 ) ;
#31 = DATE_AND_TIME ( #219, #106 ) ;
#32 = EDGE_LOOP ( 'NONE', ( #109 ) ) ;
#33 = CC_DESIGN_DATE_AND_TIME_ASSIGNMENT ( #27, #124, ( #144 ) ) ;
#34 = APPROVAL_STATUS ( 'not_yet_approved' ) ;
#35 = EDGE_LOOP ( 'NONE', ( #201 ) ) ;
#36 = CIRCLE ( 'NONE', #240, 4.999999999999997335 ) ;
#37 = AXIS2_PLACEMENT_3D ( 'NONE', #24, #208, #43 ) ;
#38 = EDGE_LOOP ( 'NONE', ( #89 ) ) ;
#39 = CARTESIAN_POINT ( 'NONE',  ( 5.237222008264699402E-14, -1.734723475976807094E-15, 14.99999999999999822 ) ) ;
#40 = DIRECTION ( 'NONE',  ( 4.275831445896959482E-31, 1.000000000000000000, 1.224646799147353207E-16 ) ) ;
#41 = CIRCLE ( 'NONE', #236, 4.000000000000000000 ) ;
#42 = DIRECTION ( 'NONE',  ( 3.491481338843133355E-15, -1.227517819005651059E-16, 1.000000000000000000 ) ) ;
#43 = DIRECTION ( 'NONE',  ( 4.275831445896958607E-31, 1.000000000000000000, 1.224646799147353207E-16 ) ) ;
#44 = PERSON_AND_ORGANIZATION_ROLE ( 'design_owner' ) ;
#45 = PERSON_AND_ORGANIZATION ( #223, #11 ) ;
#46 = AXIS2_PLACEMENT_3D ( 'NONE', #173, #20, #193 ) ;
#47 = ADVANCED_FACE ( 'NONE', ( #172, #210 ), #185, .T. ) ;
#48 = VERTEX_POINT ( 'NONE', #28 ) ;
#49 = SECURITY_CLASSIFICATION_LEVEL ( 'unclassified' ) ;
#50 = ADVANCED_FACE ( 'NONE', ( #95, #174 ), #1, .T. ) ;
#51 = MANIFOLD_SOLID_BREP ( 'Corps-Déplacer/Copier1[2]', #165 ) ;
#52 = COORDINATED_UNIVERSAL_TIME_OFFSET ( 1, 0, .AHEAD. ) ;
#53 = ORIENTED_EDGE ( 'NONE', *, *, #108, .T. ) ;
#54 = PERSON_AND_ORGANIZATION ( #223, #11 ) ;
#55 = SHAPE_DEFINITION_REPRESENTATION ( #92, #132 ) ;
#56 = EDGE_LOOP ( 'NONE', ( #205 ) ) ;
#57 = DIRECTION ( 'NONE',  ( 0.0000000000000000000, 1.000000000000000000, 0.0000000000000000000 ) ) ;
#58 = DIRECTION ( 'NONE',  ( 0.0000000000000000000, -1.000000000000000000, 0.0000000000000000000 ) ) ;
#59 = FACE_OUTER_BOUND ( 'NONE', #32, .T. ) ;
#60 = MANIFOLD_SOLID_BREP ( 'Corps-Déplacer/Copier1[1]', #112 ) ;
#61 = CARTESIAN_POINT ( 'NONE',  ( 0.0000000000000000000, 0.0000000000000000000, 0.0000000000000000000 ) ) ;
#62 = DIRECTION ( 'NONE',  ( -4.338966146962172824E-31, -1.000000000000000000, -1.227517819005651059E-16 ) ) ;
#63 = DIRECTION ( 'NONE',  ( 0.0000000000000000000, 0.0000000000000000000, 1.000000000000000000 ) ) ;
#64 = PERSON_AND_ORGANIZATION ( #223, #11 ) ;
#65 = AXIS2_PLACEMENT_3D ( 'NONE', #233, #82, #160 ) ;
#66 = EDGE_CURVE ( 'NONE', #121, #121, #154, .T. ) ;
#67 = DIRECTION ( 'NONE',  ( -3.491481338843133355E-15, 1.224646799147353207E-16, -1.000000000000000000 ) ) ;
#68 = CARTESIAN_POINT ( 'NONE',  ( 5.237222008264698771E-14, -4.000000000000001776, 14.99999999999999645 ) ) ;
#69 = AXIS2_PLACEMENT_3D ( 'NONE', #39, #158, #62 ) ;
#70 = COORDINATED_UNIVERSAL_TIME_OFFSET ( 1, 0, .AHEAD. ) ;
#71 = APPLICATION_CONTEXT ( 'configuration controlled 3d designs of mechanical parts and assemblies' ) ;
#72 = AXIS2_PLACEMENT_3D ( 'NONE', #116, #138, #155 ) ;
#73 = PERSON_AND_ORGANIZATION ( #223, #11 ) ;
#74 = DIRECTION ( 'NONE',  ( 3.491481338843133355E-15, -1.226656096638776648E-16, 1.000000000000000000 ) ) ;
#75 = PLANE ( 'NONE',  #37 ) ;
#76 = CIRCLE ( 'NONE', #96, 5.000000000000000000 ) ;
#77 = CARTESIAN_POINT ( 'NONE',  ( -6.413731847436034514E-31, 0.0000000000000000000, -1.836965810494968570E-16 ) ) ;
#78 = DIRECTION ( 'NONE',  ( 3.491481338843133355E-15, -1.224646799147353207E-16, 1.000000000000000000 ) ) ;
#79 = DIRECTION ( 'NONE',  ( 3.491481338843133355E-15, -1.227517819005651059E-16, 1.000000000000000000 ) ) ;
#80 = APPROVAL_ROLE ( '' ) ;
#81 = DIRECTION ( 'NONE',  ( 0.0000000000000000000, 1.000000000000000000, 0.0000000000000000000 ) ) ;
#82 = DIRECTION ( 'NONE',  ( 3.491481338843133355E-15, -1.224646799147353207E-16, 1.000000000000000000 ) ) ;
#83 = PRODUCT_RELATED_PRODUCT_CATEGORY ( 'detail', '', ( #135 ) ) ;
#84 = VERTEX_POINT ( 'NONE', #143 ) ;
#85 = ADVANCED_FACE ( 'NONE', ( #4 ), #120, .T. ) ;
#86 = PERSON_AND_ORGANIZATION_ROLE ( 'creator' ) ;
#87 = EDGE_LOOP ( 'NONE', ( #225 ) ) ;
#88 = COORDINATED_UNIVERSAL_TIME_OFFSET ( 1, 0, .AHEAD. ) ;
#89 = ORIENTED_EDGE ( 'NONE', *, *, #229, .T. ) ;
#90 = EDGE_LOOP ( 'NONE', ( #114 ) ) ;
#91 = AXIS2_PLACEMENT_3D ( 'NONE', #228, #93, #99 ) ;
#92 = PRODUCT_DEFINITION_SHAPE ( 'NONE', 'NONE',  #144 ) ;
#93 = DIRECTION ( 'NONE',  ( 3.491481338843133355E-15, -1.227517819005651059E-16, 1.000000000000000000 ) ) ;
#94 = FACE_OUTER_BOUND ( 'NONE', #56, .T. ) ;
#95 = FACE_BOUND ( 'NONE', #87, .T. ) ;
#96 = AXIS2_PLACEMENT_3D ( 'NONE', #189, #212, #57 ) ;
#97 = PLANE ( 'NONE',  #232 ) ;
#98 = CC_DESIGN_PERSON_AND_ORGANIZATION_ASSIGNMENT ( #30, #149, ( #146 ) ) ;
#99 = DIRECTION ( 'NONE',  ( 0.0000000000000000000, -1.000000000000000000, 0.0000000000000000000 ) ) ;
#100 = VERTEX_POINT ( 'NONE', #216 ) ;
#101 = AXIS2_PLACEMENT_3D ( 'NONE', #2, #74, #133 ) ;
#102 = VERTEX_POINT ( 'NONE', #68 ) ;
#103 = EDGE_CURVE ( 'NONE', #26, #26, #76, .T. ) ;
#104 = APPLICATION_PROTOCOL_DEFINITION ( 'international standard', 'config_control_design', 1994, #235 ) ;
#105 =( LENGTH_UNIT ( ) NAMED_UNIT ( * ) SI_UNIT ( .MILLI., .METRE. ) );
#106 = LOCAL_TIME ( 11, 35, 5.000000000000000000, #70 ) ;
#107 = APPLICATION_PROTOCOL_DEFINITION ( 'international standard', 'config_control_design', 1994, #71 ) ;
#108 = EDGE_CURVE ( 'NONE', #102, #102, #129, .T. ) ;
#109 = ORIENTED_EDGE ( 'NONE', *, *, #103, .T. ) ;
#110 = CALENDAR_DATE ( 2021, 1, 11 ) ;
#111 = EDGE_LOOP ( 'NONE', ( #184 ) ) ;
#112 = CLOSED_SHELL ( 'NONE', ( #151, #47, #113, #140, #187 ) ) ;
#113 = ADVANCED_FACE ( 'NONE', ( #231 ), #75, .F. ) ;
#114 = ORIENTED_EDGE ( 'NONE', *, *, #169, .F. ) ;
#115 = APPROVAL_PERSON_ORGANIZATION ( #64, #203, #10 ) ;
#116 = CARTESIAN_POINT ( 'NONE',  ( 2.199633243471174140E-13, -7.715274834628325378E-15, 63.00000000000000000 ) ) ;
#117 = FACE_OUTER_BOUND ( 'NONE', #237, .T. ) ;
#118 = FACE_OUTER_BOUND ( 'NONE', #171, .T. ) ;
#119 =( GEOMETRIC_REPRESENTATION_CONTEXT ( 3 ) GLOBAL_UNCERTAINTY_ASSIGNED_CONTEXT ( ( #9 ) ) GLOBAL_UNIT_ASSIGNED_CONTEXT ( ( #105, #139, #197 ) ) REPRESENTATION_CONTEXT ( 'NONE', 'WORKASPACE' ) );
#120 = PLANE ( 'NONE',  #46 ) ;
#121 = VERTEX_POINT ( 'NONE', #182 ) ;
#122 = APPROVAL_STATUS ( 'not_yet_approved' ) ;
#123 = PERSON_AND_ORGANIZATION_ROLE ( 'creator' ) ;
#124 = DATE_TIME_ROLE ( 'creation_date' ) ;
#125 = DATE_AND_TIME ( #110, #29 ) ;
#126 = ORIENTED_EDGE ( 'NONE', *, *, #156, .F. ) ;
#127 = ADVANCED_FACE ( 'NONE', ( #94, #5 ), #188, .T. ) ;
#128 = EDGE_LOOP ( 'NONE', ( #222 ) ) ;
#129 = CIRCLE ( 'NONE', #91, 4.000000000000000000 ) ;
#130 = DIRECTION ( 'NONE',  ( -4.285855558155653280E-31, -1.000000000000000000, -1.227517819005651059E-16 ) ) ;
#131 = AXIS2_PLACEMENT_3D ( 'NONE', #194, #67, #81 ) ;
#132 = ADVANCED_BREP_SHAPE_REPRESENTATION ( '28951', ( #60, #51, #206 ), #119 ) ;
#133 = DIRECTION ( 'NONE',  ( -4.333342374871280669E-31, -1.000000000000000000, -1.219727444046192488E-16 ) ) ;
#134 = DIRECTION ( 'NONE',  ( -3.491481338843133355E-15, 1.224646799147353207E-16, -1.000000000000000000 ) ) ;
#135 = PRODUCT ( '28951', '28951', '', ( #213 ) ) ;
#136 = CYLINDRICAL_SURFACE ( 'NONE', #22, 4.999999999999997335 ) ;
#137 = CC_DESIGN_APPROVAL ( #203, ( #211 ) ) ;
#138 = DIRECTION ( 'NONE',  ( -3.491481338843133355E-15, 1.224646799147353207E-16, -1.000000000000000000 ) ) ;
#139 =( NAMED_UNIT ( * ) PLANE_ANGLE_UNIT ( ) SI_UNIT ( $, .RADIAN. ) );
#140 = ADVANCED_FACE ( 'NONE', ( #23, #118 ), #179, .F. ) ;
#141 = CALENDAR_DATE ( 2021, 1, 11 ) ;
#142 = AXIS2_PLACEMENT_3D ( 'NONE', #178, #42, #58 ) ;
#143 = CARTESIAN_POINT ( 'NONE',  ( 6.589466916158041900E-14, 4.999999999999994671, 18.87298334620741258 ) ) ;
#144 = PRODUCT_DEFINITION ( 'UNKNOWN', '', #211, #198 ) ;
#145 = PLANE ( 'NONE',  #65 ) ;
#146 = SECURITY_CLASSIFICATION ( '', '', #49 ) ;
#147 = CALENDAR_DATE ( 2021, 1, 11 ) ;
#148 = APPROVAL_ROLE ( '' ) ;
#149 = PERSON_AND_ORGANIZATION_ROLE ( 'classification_officer' ) ;
#150 = LOCAL_TIME ( 11, 35, 5.000000000000000000, #196 ) ;
#151 = ADVANCED_FACE ( 'NONE', ( #59, #117 ), #136, .T. ) ;
#152 = CARTESIAN_POINT ( 'NONE',  ( 6.982962677686252905E-16, -2.453312193277551015E-17, 0.1999999999999995948 ) ) ;
#153 = DIRECTION ( 'NONE',  ( -4.333342374871280669E-31, -1.000000000000000000, -1.219727444046192488E-16 ) ) ;
#154 = CIRCLE ( 'NONE', #142, 4.000000000000000000 ) ;
#155 = DIRECTION ( 'NONE',  ( 0.0000000000000000000, 1.000000000000000000, 0.0000000000000000000 ) ) ;
#156 = EDGE_CURVE ( 'NONE', #84, #84, #36, .T. ) ;
#157 = DIRECTION ( 'NONE',  ( -4.275831445896958607E-31, -1.000000000000000000, -1.224646799147353207E-16 ) ) ;
#158 = DIRECTION ( 'NONE',  ( 3.491481338843133355E-15, -1.227517819005651059E-16, 1.000000000000000000 ) ) ;
#159 = APPROVAL_PERSON_ORGANIZATION ( #161, #215, #80 ) ;
#160 = DIRECTION ( 'NONE',  ( -4.275831445896958607E-31, -1.000000000000000000, -1.224646799147353207E-16 ) ) ;
#161 = PERSON_AND_ORGANIZATION ( #223, #11 ) ;
#162 = APPROVAL_DATE_TIME ( #12, #215 ) ;
#163 = EDGE_CURVE ( 'NONE', #100, #100, #41, .T. ) ;
#164 = CC_DESIGN_APPROVAL ( #215, ( #144 ) ) ;
#165 = CLOSED_SHELL ( 'NONE', ( #127, #85, #50, #190 ) ) ;
#166 = CARTESIAN_POINT ( 'NONE',  ( 2.199633243471174140E-13, 4.499999999999992006, 63.00000000000000000 ) ) ;
#167 = CC_DESIGN_APPROVAL ( #243, ( #146 ) ) ;
#168 = EDGE_LOOP ( 'NONE', ( #14 ) ) ;
#169 = EDGE_CURVE ( 'NONE', #48, #48, #176, .T. ) ;
#170 = CC_DESIGN_SECURITY_CLASSIFICATION ( #146, ( #211 ) ) ;
#171 = EDGE_LOOP ( 'NONE', ( #202 ) ) ;
#172 = FACE_OUTER_BOUND ( 'NONE', #128, .T. ) ;
#173 = CARTESIAN_POINT ( 'NONE',  ( 5.237222008264700033E-14, 3.749399456654637451E-32, 15.00000000000000000 ) ) ;
#174 = FACE_OUTER_BOUND ( 'NONE', #168, .T. ) ;
#175 = CC_DESIGN_DATE_AND_TIME_ASSIGNMENT ( #200, #239, ( #146 ) ) ;
#176 = CIRCLE ( 'NONE', #15, 3.800000000000001599 ) ;
#177 = CARTESIAN_POINT ( 'NONE',  ( 5.237222008264700033E-14, 3.749399456654637451E-32, 15.00000000000000000 ) ) ;
#178 = CARTESIAN_POINT ( 'NONE',  ( 5.237222008264698771E-14, -1.841276728508476243E-15, 14.99999999999999645 ) ) ;
#179 = TOROIDAL_SURFACE ( 'NONE', #69, 11.99999999999999822, 8.000000000000000000 ) ;
#180 = APPROVAL_STATUS ( 'not_yet_approved' ) ;
#181 = CIRCLE ( 'NONE', #131, 4.500000000000000000 ) ;
#182 = CARTESIAN_POINT ( 'NONE',  ( 5.237222008264698771E-14, -4.000000000000001776, 14.99999999999999645 ) ) ;
#183 = CC_DESIGN_PERSON_AND_ORGANIZATION_ASSIGNMENT ( #6, #44, ( #135 ) ) ;
#184 = ORIENTED_EDGE ( 'NONE', *, *, #229, .F. ) ;
#185 = CONICAL_SURFACE ( 'NONE', #72, 4.500000000000000000, 0.7853981633974482790 ) ;
#186 = EDGE_LOOP ( 'NONE', ( #16 ) ) ;
#187 = ADVANCED_FACE ( 'NONE', ( #192 ), #97, .F. ) ;
#188 = CYLINDRICAL_SURFACE ( 'NONE', #204, 3.999999999999999112 ) ;
#189 = CARTESIAN_POINT ( 'NONE',  ( 2.182175836776958284E-13, -7.654042494670957804E-15, 62.50000000000000000 ) ) ;
#190 = ADVANCED_FACE ( 'NONE', ( #230 ), #145, .F. ) ;
#191 = CARTESIAN_POINT ( 'NONE',  ( 6.589466916158041900E-14, -2.210139082994980462E-15, 18.87298334620741258 ) ) ;
#192 = FACE_OUTER_BOUND ( 'NONE', #35, .T. ) ;
#193 = DIRECTION ( 'NONE',  ( -4.275831445896958607E-31, -1.000000000000000000, -1.224646799147353207E-16 ) ) ;
#194 = CARTESIAN_POINT ( 'NONE',  ( 2.199633243471174140E-13, -7.715274834628325378E-15, 63.00000000000000000 ) ) ;
#195 = COORDINATED_UNIVERSAL_TIME_OFFSET ( 1, 0, .AHEAD. ) ;
#196 = COORDINATED_UNIVERSAL_TIME_OFFSET ( 1, 0, .AHEAD. ) ;
#197 =( NAMED_UNIT ( * ) SI_UNIT ( $, .STERADIAN. ) SOLID_ANGLE_UNIT ( ) );
#198 = DESIGN_CONTEXT ( 'detailed design', #235, 'design' ) ;
#199 = DIRECTION ( 'NONE',  ( 1.000000000000000000, 0.0000000000000000000, 0.0000000000000000000 ) ) ;
#200 = DATE_AND_TIME ( #147, #25 ) ;
#201 = ORIENTED_EDGE ( 'NONE', *, *, #108, .F. ) ;
#202 = ORIENTED_EDGE ( 'NONE', *, *, #156, .T. ) ;
#204 = AXIS2_PLACEMENT_3D ( 'NONE', #77, #79, #130 ) ;
#203 = APPROVAL ( #180, 'UNSPECIFIED' ) ;
#205 = ORIENTED_EDGE ( 'NONE', *, *, #66, .F. ) ;
#206 = AXIS2_PLACEMENT_3D ( 'NONE', #8, #63, #199 ) ;
#207 = DIRECTION ( 'NONE',  ( -3.491481338843133355E-15, 1.227517819005651059E-16, -1.000000000000000000 ) ) ;
#208 = DIRECTION ( 'NONE',  ( -3.491481338843133355E-15, 1.224646799147353207E-16, -1.000000000000000000 ) ) ;
#209 = CARTESIAN_POINT ( 'NONE',  ( -1.627481810825131210E-30, 3.057917272063404915E-32, -4.661293167227353184E-16 ) ) ;
#210 = FACE_BOUND ( 'NONE', #38, .T. ) ;
#211 = PRODUCT_DEFINITION_FORMATION_WITH_SPECIFIED_SOURCE ( 'ANY', '', #135, .NOT_KNOWN. ) ;
#212 = DIRECTION ( 'NONE',  ( -3.491481338843133355E-15, 1.224646799147353207E-16, -1.000000000000000000 ) ) ;
#213 = MECHANICAL_CONTEXT ( 'NONE', #71, 'mechanical' ) ;
#214 = VERTEX_POINT ( 'NONE', #166 ) ;
#215 = APPROVAL ( #122, 'UNSPECIFIED' ) ;
#216 = CARTESIAN_POINT ( 'NONE',  ( 6.982962677686236142E-16, -4.000000000000000000, 0.1999999999999991229 ) ) ;
#217 = CARTESIAN_POINT ( 'NONE',  ( 2.182175836776958284E-13, 4.999999999999992006, 62.50000000000000000 ) ) ;
#218 = APPROVAL_PERSON_ORGANIZATION ( #54, #243, #148 ) ;
#219 = CALENDAR_DATE ( 2021, 1, 11 ) ;
#220 = EDGE_LOOP ( 'NONE', ( #53 ) ) ;
#221 = PERSON_AND_ORGANIZATION ( #223, #11 ) ;
#222 = ORIENTED_EDGE ( 'NONE', *, *, #103, .F. ) ;
#223 = PERSON ( 'UNSPECIFIED', 'UNSPECIFIED', 'UNSPECIFIED', ('UNSPECIFIED'), ('UNSPECIFIED'), ('UNSPECIFIED') ) ;
#224 = APPROVAL_DATE_TIME ( #125, #243 ) ;
#225 = ORIENTED_EDGE ( 'NONE', *, *, #169, .T. ) ;
#226 = DIRECTION ( 'NONE',  ( 3.491481338843133355E-15, -1.226656096638776648E-16, 1.000000000000000000 ) ) ;
#227 = DIRECTION ( 'NONE',  ( -4.282846870592449122E-31, -1.000000000000000000, -1.226656096638776648E-16 ) ) ;
#228 = CARTESIAN_POINT ( 'NONE',  ( 5.237222008264698771E-14, -1.841276728508476243E-15, 14.99999999999999645 ) ) ;
#229 = EDGE_CURVE ( 'NONE', #214, #214, #181, .T. ) ;
#230 = FACE_OUTER_BOUND ( 'NONE', #90, .T. ) ;
#231 = FACE_OUTER_BOUND ( 'NONE', #111, .T. ) ;
#232 = AXIS2_PLACEMENT_3D ( 'NONE', #177, #78, #157 ) ;
#233 = CARTESIAN_POINT ( 'NONE',  ( -8.551702076470480934E-31, 2.999533309458101739E-32, -2.449304821232125005E-16 ) ) ;
#234 = CALENDAR_DATE ( 2021, 1, 11 ) ;
#235 = APPLICATION_CONTEXT ( 'configuration controlled 3d designs of mechanical parts and assemblies' ) ;
#236 = AXIS2_PLACEMENT_3D ( 'NONE', #152, #226, #153 ) ;
#237 = EDGE_LOOP ( 'NONE', ( #126 ) ) ;
#238 = CC_DESIGN_PERSON_AND_ORGANIZATION_ASSIGNMENT ( #221, #17, ( #211 ) ) ;
#239 = DATE_TIME_ROLE ( 'classification_date' ) ;
#240 = AXIS2_PLACEMENT_3D ( 'NONE', #191, #207, #19 ) ;
#241 = APPROVAL_DATE_TIME ( #31, #203 ) ;
#242 = EDGE_LOOP ( 'NONE', ( #13 ) ) ;
#243 = APPROVAL ( #34, 'UNSPECIFIED' ) ;
ENDSEC;
END-ISO-10303-21;
