ISO-10303-21;
HEADER;
FILE_DESCRIPTION (( 'STEP AP203' ),
    '1' );
FILE_NAME ('28948.step',
    '2021-11-01T10:35:04',
    ( '' ),
    ( '' ),
    'SwSTEP 2.0',
    'SolidWorks 2019',
    '' );
FILE_SCHEMA (( 'CONFIG_CONTROL_DESIGN' ));
ENDSEC;

DATA;
#1 = DIRECTION ( 'NONE',  ( 3.491481338843133355E-15, -1.227517819005651059E-16, 1.000000000000000000 ) ) ;
#2 = FACE_OUTER_BOUND ( 'NONE', #161, .T. ) ;
#3 = APPLICATION_PROTOCOL_DEFINITION ( 'international standard', 'config_control_design', 1994, #101 ) ;
#4 = ADVANCED_FACE ( 'NONE', ( #28, #102 ), #139, .F. ) ;
#5 = VERTEX_POINT ( 'NONE', #229 ) ;
#6 = UNCERTAINTY_MEASURE_WITH_UNIT (LENGTH_MEASURE( 1.000000000000000082E-05 ), #173, 'distance_accuracy_value', 'NONE');
#7 = ORGANIZATION ( 'UNSPECIFIED', 'UNSPECIFIED', '' ) ;
#8 = CC_DESIGN_PERSON_AND_ORGANIZATION_ASSIGNMENT ( #159, #231, ( #113 ) ) ;
#9 = DIRECTION ( 'NONE',  ( 3.491481338843133355E-15, -1.226656096638776648E-16, 1.000000000000000000 ) ) ;
#10 = ORIENTED_EDGE ( 'NONE', *, *, #109, .T. ) ;
#11 = CALENDAR_DATE ( 2021, 1, 11 ) ;
#12 = CC_DESIGN_PERSON_AND_ORGANIZATION_ASSIGNMENT ( #239, #96, ( #192 ) ) ;
#13 = DATE_AND_TIME ( #93, #86 ) ;
#14 = CIRCLE ( 'NONE', #66, 3.050000000000002043 ) ;
#15 = ADVANCED_BREP_SHAPE_REPRESENTATION ( '28948', ( #53, #214, #175 ), #188 ) ;
#16 = PLANE ( 'NONE',  #90 ) ;
#17 = CYLINDRICAL_SURFACE ( 'NONE', #89, 3.999999999999994671 ) ;
#18 = CARTESIAN_POINT ( 'NONE',  ( -1.306268295530697372E-30, 1.929403387497594974E-32, -3.741301094748271006E-16 ) ) ;
#19 = ADVANCED_FACE ( 'NONE', ( #122 ), #208, .F. ) ;
#20 = DIRECTION ( 'NONE',  ( -3.491481338843133355E-15, 1.224646799147353207E-16, -1.000000000000000000 ) ) ;
#21 = COORDINATED_UNIVERSAL_TIME_OFFSET ( 1, 0, .AHEAD. ) ;
#22 = EDGE_CURVE ( 'NONE', #108, #108, #75, .T. ) ;
#23 = CARTESIAN_POINT ( 'NONE',  ( 5.719722842808384486E-14, 3.999999999999993339, 16.38193731461716851 ) ) ;
#24 = CLOSED_SHELL ( 'NONE', ( #232, #174, #194, #69 ) ) ;
#25 = CYLINDRICAL_SURFACE ( 'NONE', #55, 3.249999999999996447 ) ;
#26 = APPROVAL ( #120, 'UNSPECIFIED' ) ;
#27 = ORIENTED_EDGE ( 'NONE', *, *, #181, .T. ) ;
#28 = FACE_OUTER_BOUND ( 'NONE', #215, .T. ) ;
#29 = APPROVAL_DATE_TIME ( #13, #26 ) ;
#30 = EDGE_LOOP ( 'NONE', ( #129 ) ) ;
#31 = CIRCLE ( 'NONE', #145, 3.999999999999994671 ) ;
#32 = COORDINATED_UNIVERSAL_TIME_OFFSET ( 1, 0, .AHEAD. ) ;
#33 = DIRECTION ( 'NONE',  ( 0.0000000000000000000, -1.000000000000000000, 0.0000000000000000000 ) ) ;
#34 = APPROVAL_ROLE ( '' ) ;
#35 = DIRECTION ( 'NONE',  ( -4.275831445896958607E-31, -1.000000000000000000, -1.224646799147353207E-16 ) ) ;
#36 = APPROVAL_STATUS ( 'not_yet_approved' ) ;
#37 = CC_DESIGN_SECURITY_CLASSIFICATION ( #131, ( #192 ) ) ;
#38 = DIRECTION ( 'NONE',  ( 3.491481338843133355E-15, -1.227517819005651059E-16, 1.000000000000000000 ) ) ;
#39 = CARTESIAN_POINT ( 'NONE',  ( 4.538925740496072731E-14, -1.734723475976807094E-15, 12.99999999999999822 ) ) ;
#40 = FACE_OUTER_BOUND ( 'NONE', #114, .T. ) ;
#41 = LOCAL_TIME ( 11, 35, 4.000000000000000000, #32 ) ;
#42 = AXIS2_PLACEMENT_3D ( 'NONE', #57, #155, #186 ) ;
#43 = VERTEX_POINT ( 'NONE', #158 ) ;
#44 = DIRECTION ( 'NONE',  ( -4.148156803295584847E-31, -1.000000000000000000, -1.251002506714043540E-16 ) ) ;
#45 = LOCAL_TIME ( 11, 35, 4.000000000000000000, #219 ) ;
#46 = DESIGN_CONTEXT ( 'detailed design', #101, 'design' ) ;
#47 = CC_DESIGN_APPROVAL ( #106, ( #192 ) ) ;
#48 = CC_DESIGN_PERSON_AND_ORGANIZATION_ASSIGNMENT ( #118, #99, ( #131 ) ) ;
#49 = CLOSED_SHELL ( 'NONE', ( #117, #77, #19, #4, #178 ) ) ;
#50 = PERSON_AND_ORGANIZATION ( #237, #7 ) ;
#51 = ORIENTED_EDGE ( 'NONE', *, *, #130, .T. ) ;
#52 = SHAPE_DEFINITION_REPRESENTATION ( #88, #15 ) ;
#53 = MANIFOLD_SOLID_BREP ( 'Corps-Déplacer/Copier1[1]', #49 ) ;
#54 = EDGE_LOOP ( 'NONE', ( #51 ) ) ;
#55 = AXIS2_PLACEMENT_3D ( 'NONE', #233, #68, #160 ) ;
#56 = COORDINATED_UNIVERSAL_TIME_OFFSET ( 1, 0, .AHEAD. ) ;
#57 = CARTESIAN_POINT ( 'NONE',  ( 6.982962677686237128E-16, -2.453312193277545468E-17, 0.1999999999999991507 ) ) ;
#58 = PERSON_AND_ORGANIZATION ( #237, #7 ) ;
#59 = CARTESIAN_POINT ( 'NONE',  ( 2.199633243471174140E-13, -7.715274834628325378E-15, 63.00000000000000000 ) ) ;
#60 = PLANE ( 'NONE',  #226 ) ;
#61 = CC_DESIGN_PERSON_AND_ORGANIZATION_ASSIGNMENT ( #58, #201, ( #192 ) ) ;
#62 = AXIS2_PLACEMENT_3D ( 'NONE', #202, #1, #33 ) ;
#63 = CIRCLE ( 'NONE', #95, 3.249999999999996003 ) ;
#64 = DIRECTION ( 'NONE',  ( 4.275831445896958607E-31, 1.000000000000000000, 1.224646799147353207E-16 ) ) ;
#65 = DIRECTION ( 'NONE',  ( -3.491481338843133355E-15, 1.224646799147353207E-16, -1.000000000000000000 ) ) ;
#66 = AXIS2_PLACEMENT_3D ( 'NONE', #18, #228, #169 ) ;
#67 = CARTESIAN_POINT ( 'NONE',  ( 6.982962677686223323E-16, -3.250000000000000000, 0.1999999999999987343 ) ) ;
#68 = DIRECTION ( 'NONE',  ( 3.491481338843133355E-15, -1.227517819005651059E-16, 1.000000000000000000 ) ) ;
#69 = ADVANCED_FACE ( 'NONE', ( #165 ), #16, .F. ) ;
#70 = CONICAL_SURFACE ( 'NONE', #168, 3.250000000000000000, 0.7853981633974442822 ) ;
#71 = EDGE_CURVE ( 'NONE', #91, #91, #151, .T. ) ;
#72 = ORIENTED_EDGE ( 'NONE', *, *, #100, .T. ) ;
#73 = CARTESIAN_POINT ( 'NONE',  ( 4.538925740496072731E-14, -3.249999999999997780, 12.99999999999999822 ) ) ;
#74 = EDGE_LOOP ( 'NONE', ( #176 ) ) ;
#75 = CIRCLE ( 'NONE', #217, 3.499999999999997335 ) ;
#76 = DATE_AND_TIME ( #115, #41 ) ;
#77 = ADVANCED_FACE ( 'NONE', ( #242, #227 ), #193, .T. ) ;
#78 = ORIENTED_EDGE ( 'NONE', *, *, #181, .F. ) ;
#79 = AXIS2_PLACEMENT_3D ( 'NONE', #82, #116, #80 ) ;
#80 = DIRECTION ( 'NONE',  ( -4.275831445896958607E-31, -1.000000000000000000, -1.224646799147353207E-16 ) ) ;
#81 = DATE_TIME_ROLE ( 'creation_date' ) ;
#82 = CARTESIAN_POINT ( 'NONE',  ( 4.538925740496073362E-14, 2.999519565323706458E-32, 13.00000000000000000 ) ) ;
#83 = DIRECTION ( 'NONE',  ( -4.275831445896958607E-31, -1.000000000000000000, -1.224646799147353207E-16 ) ) ;
#84 = CARTESIAN_POINT ( 'NONE',  ( 5.719722842808384486E-14, -2.149862307622077181E-15, 16.38193731461716851 ) ) ;
#85 = PERSON_AND_ORGANIZATION ( #237, #7 ) ;
#86 = LOCAL_TIME ( 11, 35, 4.000000000000000000, #56 ) ;
#87 = FACE_OUTER_BOUND ( 'NONE', #110, .T. ) ;
#88 = PRODUCT_DEFINITION_SHAPE ( 'NONE', 'NONE',  #113 ) ;
#89 = AXIS2_PLACEMENT_3D ( 'NONE', #167, #65, #204 ) ;
#90 = AXIS2_PLACEMENT_3D ( 'NONE', #183, #153, #83 ) ;
#91 = VERTEX_POINT ( 'NONE', #67 ) ;
#92 = EDGE_LOOP ( 'NONE', ( #78 ) ) ;
#93 = CALENDAR_DATE ( 2021, 1, 11 ) ;
#94 = AXIS2_PLACEMENT_3D ( 'NONE', #119, #20, #154 ) ;
#95 = AXIS2_PLACEMENT_3D ( 'NONE', #121, #97, #241 ) ;
#96 = PERSON_AND_ORGANIZATION_ROLE ( 'creator' ) ;
#97 = DIRECTION ( 'NONE',  ( 3.491481338843133355E-15, -1.227517819005651059E-16, 1.000000000000000000 ) ) ;
#98 = CIRCLE ( 'NONE', #62, 3.249999999999996003 ) ;
#99 = PERSON_AND_ORGANIZATION_ROLE ( 'classification_officer' ) ;
#100 = EDGE_CURVE ( 'NONE', #43, #43, #63, .T. ) ;
#101 = APPLICATION_CONTEXT ( 'configuration controlled 3d designs of mechanical parts and assemblies' ) ;
#102 = FACE_OUTER_BOUND ( 'NONE', #74, .T. ) ;
#103 = DIRECTION ( 'NONE',  ( -4.341035390681907420E-31, -1.000000000000000000, -1.227517819005651059E-16 ) ) ;
#104 = CC_DESIGN_APPROVAL ( #141, ( #113 ) ) ;
#105 = DIRECTION ( 'NONE',  ( 0.0000000000000000000, 1.000000000000000000, 0.0000000000000000000 ) ) ;
#106 = APPROVAL ( #36, 'UNSPECIFIED' ) ;
#107 = CALENDAR_DATE ( 2021, 1, 11 ) ;
#108 = VERTEX_POINT ( 'NONE', #126 ) ;
#109 = EDGE_CURVE ( 'NONE', #5, #5, #14, .T. ) ;
#110 = EDGE_LOOP ( 'NONE', ( #111 ) ) ;
#111 = ORIENTED_EDGE ( 'NONE', *, *, #71, .T. ) ;
#112 = MECHANICAL_CONTEXT ( 'NONE', #189, 'mechanical' ) ;
#113 = PRODUCT_DEFINITION ( 'UNKNOWN', '', #192, #46 ) ;
#114 = EDGE_LOOP ( 'NONE', ( #27 ) ) ;
#115 = CALENDAR_DATE ( 2021, 1, 11 ) ;
#116 = DIRECTION ( 'NONE',  ( 3.491481338843133355E-15, -1.224646799147353207E-16, 1.000000000000000000 ) ) ;
#117 = ADVANCED_FACE ( 'NONE', ( #40, #2 ), #17, .T. ) ;
#118 = PERSON_AND_ORGANIZATION ( #237, #7 ) ;
#119 = CARTESIAN_POINT ( 'NONE',  ( 2.182175836776957779E-13, -7.654042494670956226E-15, 62.49999999999998579 ) ) ;
#120 = APPROVAL_STATUS ( 'not_yet_approved' ) ;
#121 = CARTESIAN_POINT ( 'NONE',  ( 4.538925740496072731E-14, -1.595773164707346130E-15, 12.99999999999999822 ) ) ;
#122 = FACE_OUTER_BOUND ( 'NONE', #234, .T. ) ;
#123 = FACE_OUTER_BOUND ( 'NONE', #54, .T. ) ;
#124 = CARTESIAN_POINT ( 'NONE',  ( 2.182175836776957779E-13, 3.999999999999989786, 62.49999999999998579 ) ) ;
#125 = CARTESIAN_POINT ( 'NONE',  ( 0.0000000000000000000, 0.0000000000000000000, 0.0000000000000000000 ) ) ;
#126 = CARTESIAN_POINT ( 'NONE',  ( 2.199633243471174140E-13, 3.499999999999989786, 63.00000000000000000 ) ) ;
#127 = AXIS2_PLACEMENT_3D ( 'NONE', #39, #38, #103 ) ;
#128 = PRODUCT ( '28948', '28948', '', ( #112 ) ) ;
#129 = ORIENTED_EDGE ( 'NONE', *, *, #130, .F. ) ;
#130 = EDGE_CURVE ( 'NONE', #143, #143, #98, .T. ) ;
#131 = SECURITY_CLASSIFICATION ( '', '', #152 ) ;
#132 = EDGE_LOOP ( 'NONE', ( #195 ) ) ;
#133 = ORIENTED_EDGE ( 'NONE', *, *, #146, .F. ) ;
#134 = CC_DESIGN_DATE_AND_TIME_ASSIGNMENT ( #203, #81, ( #113 ) ) ;
#135 = ORIENTED_EDGE ( 'NONE', *, *, #22, .F. ) ;
#136 = CARTESIAN_POINT ( 'NONE',  ( 2.199633243471174140E-13, -7.715274834628325378E-15, 63.00000000000000000 ) ) ;
#137 = DIRECTION ( 'NONE',  ( 3.491481338843133355E-15, -1.224646799147353207E-16, 1.000000000000000000 ) ) ;
#138 = CARTESIAN_POINT ( 'NONE',  ( 6.982962677686237128E-16, -2.453312193277545468E-17, 0.1999999999999991507 ) ) ;
#139 = TOROIDAL_SURFACE ( 'NONE', #127, 11.24999999999999467, 8.000000000000000000 ) ;
#140 = DIRECTION ( 'NONE',  ( 0.0000000000000000000, 1.000000000000000000, 0.0000000000000000000 ) ) ;
#141 = APPROVAL ( #212, 'UNSPECIFIED' ) ;
#142 = DIRECTION ( 'NONE',  ( -3.491481338843133355E-15, 1.224646799147353207E-16, -1.000000000000000000 ) ) ;
#143 = VERTEX_POINT ( 'NONE', #73 ) ;
#144 = COORDINATED_UNIVERSAL_TIME_OFFSET ( 1, 0, .AHEAD. ) ;
#145 = AXIS2_PLACEMENT_3D ( 'NONE', #84, #157, #140 ) ;
#146 = EDGE_CURVE ( 'NONE', #216, #216, #31, .T. ) ;
#147 = EDGE_LOOP ( 'NONE', ( #10 ) ) ;
#148 = ORIENTED_EDGE ( 'NONE', *, *, #22, .T. ) ;
#149 = APPROVAL_PERSON_ORGANIZATION ( #236, #26, #184 ) ;
#150 = DIRECTION ( 'NONE',  ( -3.491481338843133355E-15, 1.224646799147353207E-16, -1.000000000000000000 ) ) ;
#151 = CIRCLE ( 'NONE', #42, 3.250000000000000000 ) ;
#152 = SECURITY_CLASSIFICATION_LEVEL ( 'unclassified' ) ;
#153 = DIRECTION ( 'NONE',  ( 3.491481338843133355E-15, -1.224646799147353207E-16, 1.000000000000000000 ) ) ;
#154 = DIRECTION ( 'NONE',  ( 0.0000000000000000000, 1.000000000000000000, 0.0000000000000000000 ) ) ;
#155 = DIRECTION ( 'NONE',  ( 3.491481338843133355E-15, -1.226656096638776648E-16, 1.000000000000000000 ) ) ;
#156 = AXIS2_PLACEMENT_3D ( 'NONE', #136, #240, #105 ) ;
#157 = DIRECTION ( 'NONE',  ( -3.491481338843133355E-15, 1.227517819005651059E-16, -1.000000000000000000 ) ) ;
#158 = CARTESIAN_POINT ( 'NONE',  ( 4.538925740496072731E-14, -3.249999999999997780, 12.99999999999999822 ) ) ;
#159 = PERSON_AND_ORGANIZATION ( #237, #7 ) ;
#160 = DIRECTION ( 'NONE',  ( -4.285855558155653280E-31, -1.000000000000000000, -1.227517819005650812E-16 ) ) ;
#161 = EDGE_LOOP ( 'NONE', ( #133 ) ) ;
#162 = DATE_AND_TIME ( #11, #45 ) ;
#163 = AXIS2_PLACEMENT_3D ( 'NONE', #166, #150, #64 ) ;
#164 = DATE_TIME_ROLE ( 'classification_date' ) ;
#165 = FACE_OUTER_BOUND ( 'NONE', #132, .T. ) ;
#166 = CARTESIAN_POINT ( 'NONE',  ( 2.199633243471174140E-13, 2.624579619658237677E-32, 63.00000000000000000 ) ) ;
#167 = CARTESIAN_POINT ( 'NONE',  ( 0.0000000000000000000, 0.0000000000000000000, 0.0000000000000000000 ) ) ;
#168 = AXIS2_PLACEMENT_3D ( 'NONE', #138, #9, #44 ) ;
#169 = DIRECTION ( 'NONE',  ( -4.282846870592447371E-31, -1.000000000000000000, -1.226656096638776648E-16 ) ) ;
#170 = DATE_AND_TIME ( #107, #200 ) ;
#171 = VERTEX_POINT ( 'NONE', #124 ) ;
#172 = APPROVAL_PERSON_ORGANIZATION ( #85, #141, #210 ) ;
#173 =( LENGTH_UNIT ( ) NAMED_UNIT ( * ) SI_UNIT ( .MILLI., .METRE. ) );
#174 = ADVANCED_FACE ( 'NONE', ( #123 ), #207, .T. ) ;
#175 = AXIS2_PLACEMENT_3D ( 'NONE', #125, #191, #198 ) ;
#176 = ORIENTED_EDGE ( 'NONE', *, *, #146, .T. ) ;
#177 = APPLICATION_PROTOCOL_DEFINITION ( 'international standard', 'config_control_design', 1994, #189 ) ;
#178 = ADVANCED_FACE ( 'NONE', ( #209 ), #60, .F. ) ;
#179 = PERSON_AND_ORGANIZATION_ROLE ( 'design_owner' ) ;
#180 = ORIENTED_EDGE ( 'NONE', *, *, #71, .F. ) ;
#181 = EDGE_CURVE ( 'NONE', #171, #171, #243, .T. ) ;
#182 = APPROVAL_DATE_TIME ( #162, #106 ) ;
#183 = CARTESIAN_POINT ( 'NONE',  ( -1.496540803003649371E-30, 5.249158527076895587E-32, -4.286263215427961744E-16 ) ) ;
#184 = APPROVAL_ROLE ( '' ) ;
#185 = FACE_BOUND ( 'NONE', #147, .T. ) ;
#186 = DIRECTION ( 'NONE',  ( -4.148156803295584847E-31, -1.000000000000000000, -1.251002506714043540E-16 ) ) ;
#187 = CARTESIAN_POINT ( 'NONE',  ( 4.538925740496073362E-14, 2.999519565323706458E-32, 13.00000000000000000 ) ) ;
#188 =( GEOMETRIC_REPRESENTATION_CONTEXT ( 3 ) GLOBAL_UNCERTAINTY_ASSIGNED_CONTEXT ( ( #6 ) ) GLOBAL_UNIT_ASSIGNED_CONTEXT ( ( #173, #190, #235 ) ) REPRESENTATION_CONTEXT ( 'NONE', 'WORKASPACE' ) );
#189 = APPLICATION_CONTEXT ( 'configuration controlled 3d designs of mechanical parts and assemblies' ) ;
#190 =( NAMED_UNIT ( * ) PLANE_ANGLE_UNIT ( ) SI_UNIT ( $, .RADIAN. ) );
#191 = DIRECTION ( 'NONE',  ( 0.0000000000000000000, 0.0000000000000000000, 1.000000000000000000 ) ) ;
#192 = PRODUCT_DEFINITION_FORMATION_WITH_SPECIFIED_SOURCE ( 'ANY', '', #128, .NOT_KNOWN. ) ;
#193 = CONICAL_SURFACE ( 'NONE', #156, 3.499999999999997335, 0.7853981633974339571 ) ;
#194 = ADVANCED_FACE ( 'NONE', ( #185, #225 ), #70, .T. ) ;
#195 = ORIENTED_EDGE ( 'NONE', *, *, #109, .F. ) ;
#196 = APPROVAL_PERSON_ORGANIZATION ( #206, #106, #34 ) ;
#197 = FACE_OUTER_BOUND ( 'NONE', #30, .T. ) ;
#198 = DIRECTION ( 'NONE',  ( 1.000000000000000000, 0.0000000000000000000, 0.0000000000000000000 ) ) ;
#199 = EDGE_LOOP ( 'NONE', ( #148 ) ) ;
#200 = LOCAL_TIME ( 11, 35, 4.000000000000000000, #21 ) ;
#201 = PERSON_AND_ORGANIZATION_ROLE ( 'design_supplier' ) ;
#202 = CARTESIAN_POINT ( 'NONE',  ( 4.538925740496072731E-14, -1.595773164707346130E-15, 12.99999999999999822 ) ) ;
#203 = DATE_AND_TIME ( #213, #222 ) ;
#204 = DIRECTION ( 'NONE',  ( 4.275831445896959482E-31, 1.000000000000000000, 1.224646799147353454E-16 ) ) ;
#205 = CC_DESIGN_DATE_AND_TIME_ASSIGNMENT ( #76, #164, ( #131 ) ) ;
#206 = PERSON_AND_ORGANIZATION ( #237, #7 ) ;
#207 = PLANE ( 'NONE',  #79 ) ;
#208 = PLANE ( 'NONE',  #163 ) ;
#209 = FACE_OUTER_BOUND ( 'NONE', #221, .T. ) ;
#210 = APPROVAL_ROLE ( '' ) ;
#211 = CC_DESIGN_APPROVAL ( #26, ( #131 ) ) ;
#212 = APPROVAL_STATUS ( 'not_yet_approved' ) ;
#213 = CALENDAR_DATE ( 2021, 1, 11 ) ;
#214 = MANIFOLD_SOLID_BREP ( 'Corps-Déplacer/Copier1[2]', #24 ) ;
#215 = EDGE_LOOP ( 'NONE', ( #72 ) ) ;
#216 = VERTEX_POINT ( 'NONE', #23 ) ;
#217 = AXIS2_PLACEMENT_3D ( 'NONE', #59, #142, #223 ) ;
#218 = EDGE_LOOP ( 'NONE', ( #180 ) ) ;
#219 = COORDINATED_UNIVERSAL_TIME_OFFSET ( 1, 0, .AHEAD. ) ;
#220 = CC_DESIGN_PERSON_AND_ORGANIZATION_ASSIGNMENT ( #50, #179, ( #128 ) ) ;
#221 = EDGE_LOOP ( 'NONE', ( #238 ) ) ;
#222 = LOCAL_TIME ( 11, 35, 4.000000000000000000, #144 ) ;
#223 = DIRECTION ( 'NONE',  ( 0.0000000000000000000, 1.000000000000000000, 0.0000000000000000000 ) ) ;
#224 = PRODUCT_RELATED_PRODUCT_CATEGORY ( 'detail', '', ( #128 ) ) ;
#225 = FACE_OUTER_BOUND ( 'NONE', #218, .T. ) ;
#226 = AXIS2_PLACEMENT_3D ( 'NONE', #187, #137, #35 ) ;
#227 = FACE_BOUND ( 'NONE', #199, .T. ) ;
#228 = DIRECTION ( 'NONE',  ( 3.491481338843133355E-15, -1.226656096638776648E-16, 1.000000000000000000 ) ) ;
#229 = CARTESIAN_POINT ( 'NONE',  ( -2.612536591061394744E-30, -3.050000000000002043, -7.482602189496542013E-16 ) ) ;
#230 = APPROVAL_DATE_TIME ( #170, #141 ) ;
#231 = PERSON_AND_ORGANIZATION_ROLE ( 'creator' ) ;
#232 = ADVANCED_FACE ( 'NONE', ( #197, #87 ), #25, .T. ) ;
#233 = CARTESIAN_POINT ( 'NONE',  ( -6.413731847436034514E-31, 0.0000000000000000000, -1.836965810494968570E-16 ) ) ;
#234 = EDGE_LOOP ( 'NONE', ( #135 ) ) ;
#235 =( NAMED_UNIT ( * ) SI_UNIT ( $, .STERADIAN. ) SOLID_ANGLE_UNIT ( ) );
#236 = PERSON_AND_ORGANIZATION ( #237, #7 ) ;
#237 = PERSON ( 'UNSPECIFIED', 'UNSPECIFIED', 'UNSPECIFIED', ('UNSPECIFIED'), ('UNSPECIFIED'), ('UNSPECIFIED') ) ;
#238 = ORIENTED_EDGE ( 'NONE', *, *, #100, .F. ) ;
#239 = PERSON_AND_ORGANIZATION ( #237, #7 ) ;
#240 = DIRECTION ( 'NONE',  ( -3.491481338843133355E-15, 1.224646799147353207E-16, -1.000000000000000000 ) ) ;
#241 = DIRECTION ( 'NONE',  ( 0.0000000000000000000, -1.000000000000000000, 0.0000000000000000000 ) ) ;
#242 = FACE_OUTER_BOUND ( 'NONE', #92, .T. ) ;
#243 = CIRCLE ( 'NONE', #94, 3.999999999999997335 ) ;
ENDSEC;
END-ISO-10303-21;
