ISO-10303-21;
HEADER;
FILE_DESCRIPTION (( 'STEP AP203' ),
    '1' );
FILE_NAME ('28937.step',
    '2021-11-01T09:15:59',
    ( '' ),
    ( '' ),
    'SwSTEP 2.0',
    'SolidWorks 2019',
    '' );
FILE_SCHEMA (( 'CONFIG_CONTROL_DESIGN' ));
ENDSEC;

DATA;
#1 = ORIENTED_EDGE ( 'NONE', *, *, #133, .F. ) ;
#2 = APPROVAL_PERSON_ORGANIZATION ( #163, #141, #64 ) ;
#3 = FACE_OUTER_BOUND ( 'NONE', #71, .T. ) ;
#4 = FACE_OUTER_BOUND ( 'NONE', #39, .T. ) ;
#5 = PERSON_AND_ORGANIZATION_ROLE ( 'creator' ) ;
#6 = ORIENTED_EDGE ( 'NONE', *, *, #152, .T. ) ;
#7 = CC_DESIGN_PERSON_AND_ORGANIZATION_ASSIGNMENT ( #87, #201, ( #114 ) ) ;
#8 = DATE_AND_TIME ( #22, #188 ) ;
#9 = FACE_OUTER_BOUND ( 'NONE', #241, .T. ) ;
#10 = DATE_TIME_ROLE ( 'creation_date' ) ;
#11 = PLANE ( 'NONE',  #14 ) ;
#12 = CARTESIAN_POINT ( 'NONE',  ( 6.982962677686248961E-16, -2.453312193277549783E-17, 0.1999999999999994837 ) ) ;
#13 = VERTEX_POINT ( 'NONE', #207 ) ;
#14 = AXIS2_PLACEMENT_3D ( 'NONE', #38, #215, #182 ) ;
#15 = EDGE_LOOP ( 'NONE', ( #130 ) ) ;
#16 = SECURITY_CLASSIFICATION ( '', '', #242 ) ;
#17 = EDGE_CURVE ( 'NONE', #110, #110, #160, .T. ) ;
#18 = DIRECTION ( 'NONE',  ( 3.491481338843133355E-15, -1.224646799147353207E-16, 1.000000000000000000 ) ) ;
#19 = DIRECTION ( 'NONE',  ( 3.491481338843133355E-15, -1.227517819005651059E-16, 1.000000000000000000 ) ) ;
#20 = PERSON_AND_ORGANIZATION ( #44, #136 ) ;
#21 = CARTESIAN_POINT ( 'NONE',  ( 2.513866563967056016E-13, -8.817456953860941711E-15, 72.00000000000000000 ) ) ;
#22 = CALENDAR_DATE ( 2021, 1, 11 ) ;
#23 = CARTESIAN_POINT ( 'NONE',  ( 6.558357410743854824E-14, -2.076449974346732108E-15, 18.78388218141500943 ) ) ;
#24 = DATE_AND_TIME ( #200, #33 ) ;
#25 = FACE_OUTER_BOUND ( 'NONE', #62, .T. ) ;
#26 = ADVANCED_FACE ( 'NONE', ( #9 ), #11, .T. ) ;
#27 = CARTESIAN_POINT ( 'NONE',  ( -8.551702076470480934E-31, 2.999533309458101739E-32, -2.449304821232125005E-16 ) ) ;
#28 = AXIS2_PLACEMENT_3D ( 'NONE', #119, #18, #199 ) ;
#29 =( NAMED_UNIT ( * ) PLANE_ANGLE_UNIT ( ) SI_UNIT ( $, .RADIAN. ) );
#30 = ADVANCED_FACE ( 'NONE', ( #99 ), #177, .F. ) ;
#31 = ORIENTED_EDGE ( 'NONE', *, *, #226, .F. ) ;
#32 = ORIENTED_EDGE ( 'NONE', *, *, #105, .F. ) ;
#33 = LOCAL_TIME ( 10, 15, 59.00000000000000000, #125 ) ;
#34 = ORIENTED_EDGE ( 'NONE', *, *, #230, .T. ) ;
#35 = ADVANCED_FACE ( 'NONE', ( #4, #175 ), #107, .T. ) ;
#36 = AXIS2_PLACEMENT_3D ( 'NONE', #159, #139, #42 ) ;
#37 = CIRCLE ( 'NONE', #56, 4.300000000000001599 ) ;
#38 = CARTESIAN_POINT ( 'NONE',  ( 5.586370142149013368E-14, 3.749399456654637451E-32, 16.00000000000000000 ) ) ;
#39 = EDGE_LOOP ( 'NONE', ( #73 ) ) ;
#40 = COORDINATED_UNIVERSAL_TIME_OFFSET ( 1, 0, .AHEAD. ) ;
#41 = FACE_BOUND ( 'NONE', #15, .T. ) ;
#42 = DIRECTION ( 'NONE',  ( -4.389485975339105858E-31, -1.000000000000000000, -1.227517819005651059E-16 ) ) ;
#43 = AXIS2_PLACEMENT_3D ( 'NONE', #161, #231, #229 ) ;
#44 = PERSON ( 'UNSPECIFIED', 'UNSPECIFIED', 'UNSPECIFIED', ('UNSPECIFIED'), ('UNSPECIFIED'), ('UNSPECIFIED') ) ;
#45 = DIRECTION ( 'NONE',  ( -3.491481338843133355E-15, 1.227517819005651059E-16, -1.000000000000000000 ) ) ;
#46 = MECHANICAL_CONTEXT ( 'NONE', #112, 'mechanical' ) ;
#47 = TOROIDAL_SURFACE ( 'NONE', #36, 12.49999999999999645, 8.000000000000000000 ) ;
#48 = CC_DESIGN_SECURITY_CLASSIFICATION ( #16, ( #114 ) ) ;
#49 = CARTESIAN_POINT ( 'NONE',  ( 5.586370142149013368E-14, -1.964028510409041694E-15, 16.00000000000000000 ) ) ;
#50 = CC_DESIGN_PERSON_AND_ORGANIZATION_ASSIGNMENT ( #61, #176, ( #137 ) ) ;
#51 = EDGE_LOOP ( 'NONE', ( #179 ) ) ;
#52 = DESIGN_CONTEXT ( 'detailed design', #190, 'design' ) ;
#53 = CARTESIAN_POINT ( 'NONE',  ( 2.513866563967056016E-13, 3.999999999999992450, 72.00000000000000000 ) ) ;
#54 = SHAPE_DEFINITION_REPRESENTATION ( #69, #140 ) ;
#55 = APPROVAL_PERSON_ORGANIZATION ( #219, #210, #220 ) ;
#56 = AXIS2_PLACEMENT_3D ( 'NONE', #59, #157, #80 ) ;
#57 = PRODUCT_DEFINITION ( 'UNKNOWN', '', #114, #52 ) ;
#58 = CARTESIAN_POINT ( 'NONE',  ( 2.478951750578623799E-13, -8.694992273946204985E-15, 70.99999999999998579 ) ) ;
#59 = CARTESIAN_POINT ( 'NONE',  ( -1.841624154354753184E-30, 3.810259861773944146E-32, -5.274621215546741631E-16 ) ) ;
#60 = EDGE_CURVE ( 'NONE', #127, #127, #37, .T. ) ;
#61 = PERSON_AND_ORGANIZATION ( #44, #136 ) ;
#62 = EDGE_LOOP ( 'NONE', ( #32 ) ) ;
#63 = CARTESIAN_POINT ( 'NONE',  ( 5.586370142149013368E-14, -1.964028510409041694E-15, 16.00000000000000000 ) ) ;
#64 = APPROVAL_ROLE ( '' ) ;
#65 = FACE_OUTER_BOUND ( 'NONE', #208, .T. ) ;
#66 = CARTESIAN_POINT ( 'NONE',  ( 5.586370142149013368E-14, -4.499999999999999112, 16.00000000000000000 ) ) ;
#67 = PERSON_AND_ORGANIZATION_ROLE ( 'creator' ) ;
#68 = CC_DESIGN_PERSON_AND_ORGANIZATION_ASSIGNMENT ( #171, #67, ( #114 ) ) ;
#69 = PRODUCT_DEFINITION_SHAPE ( 'NONE', 'NONE',  #57 ) ;
#70 = AXIS2_PLACEMENT_3D ( 'NONE', #49, #132, #108 ) ;
#71 = EDGE_LOOP ( 'NONE', ( #233 ) ) ;
#72 = VERTEX_POINT ( 'NONE', #66 ) ;
#73 = ORIENTED_EDGE ( 'NONE', *, *, #17, .T. ) ;
#74 = CALENDAR_DATE ( 2021, 1, 11 ) ;
#75 = CC_DESIGN_APPROVAL ( #223, ( #57 ) ) ;
#76 = DIRECTION ( 'NONE',  ( -3.491481338843133355E-15, 1.224646799147353207E-16, -1.000000000000000000 ) ) ;
#77 = FACE_OUTER_BOUND ( 'NONE', #117, .T. ) ;
#78 = ADVANCED_FACE ( 'NONE', ( #41, #65 ), #228, .T. ) ;
#79 = CARTESIAN_POINT ( 'NONE',  ( 2.513866563967056016E-13, -8.817456953860941711E-15, 72.00000000000000000 ) ) ;
#80 = DIRECTION ( 'NONE',  ( -4.282846870592447371E-31, -1.000000000000000000, -1.226656096638776648E-16 ) ) ;
#81 = DATE_AND_TIME ( #183, #216 ) ;
#82 = DIRECTION ( 'NONE',  ( -3.491481338843133355E-15, 1.224646799147353207E-16, -1.000000000000000000 ) ) ;
#83 = PLANE ( 'NONE',  #222 ) ;
#84 = AXIS2_PLACEMENT_3D ( 'NONE', #23, #45, #126 ) ;
#85 = CC_DESIGN_APPROVAL ( #210, ( #16 ) ) ;
#86 = CARTESIAN_POINT ( 'NONE',  ( 2.513866563967056016E-13, 2.999519565323702626E-32, 72.00000000000000000 ) ) ;
#87 = PERSON_AND_ORGANIZATION ( #44, #136 ) ;
#88 = CARTESIAN_POINT ( 'NONE',  ( 5.586370142149013368E-14, -4.499999999999999112, 16.00000000000000000 ) ) ;
#89 = MANIFOLD_SOLID_BREP ( 'Corps-Déplacer/Copier1[2]', #165 ) ;
#90 = DIRECTION ( 'NONE',  ( 0.0000000000000000000, 0.0000000000000000000, 1.000000000000000000 ) ) ;
#91 = AXIS2_PLACEMENT_3D ( 'NONE', #12, #166, #234 ) ;
#92 = LOCAL_TIME ( 10, 15, 59.00000000000000000, #148 ) ;
#93 = CALENDAR_DATE ( 2021, 1, 11 ) ;
#94 = ADVANCED_FACE ( 'NONE', ( #121, #162 ), #202, .T. ) ;
#95 = MANIFOLD_SOLID_BREP ( 'Corps-Déplacer/Copier1[1]', #155 ) ;
#96 = CIRCLE ( 'NONE', #84, 4.999999999999997335 ) ;
#97 = ADVANCED_FACE ( 'NONE', ( #77, #214 ), #47, .F. ) ;
#98 = DIRECTION ( 'NONE',  ( -4.285855558155653280E-31, -1.000000000000000000, -1.227517819005651059E-16 ) ) ;
#99 = FACE_OUTER_BOUND ( 'NONE', #196, .T. ) ;
#100 = APPLICATION_PROTOCOL_DEFINITION ( 'international standard', 'config_control_design', 1994, #190 ) ;
#101 = FACE_OUTER_BOUND ( 'NONE', #113, .T. ) ;
#102 = AXIS2_PLACEMENT_3D ( 'NONE', #111, #90, #158 ) ;
#103 = LOCAL_TIME ( 10, 15, 59.00000000000000000, #221 ) ;
#104 = DIRECTION ( 'NONE',  ( 3.491481338843133355E-15, -1.227517819005651059E-16, 1.000000000000000000 ) ) ;
#105 = EDGE_CURVE ( 'NONE', #168, #168, #209, .T. ) ;
#106 = APPROVAL_DATE_TIME ( #8, #223 ) ;
#107 = CYLINDRICAL_SURFACE ( 'NONE', #172, 4.999999999999997335 ) ;
#108 = DIRECTION ( 'NONE',  ( 0.0000000000000000000, -1.000000000000000000, 0.0000000000000000000 ) ) ;
#109 = DIRECTION ( 'NONE',  ( 3.491481338843133355E-15, -1.224646799147353207E-16, 1.000000000000000000 ) ) ;
#110 = VERTEX_POINT ( 'NONE', #206 ) ;
#111 = CARTESIAN_POINT ( 'NONE',  ( 0.0000000000000000000, 0.0000000000000000000, 0.0000000000000000000 ) ) ;
#112 = APPLICATION_CONTEXT ( 'configuration controlled 3d designs of mechanical parts and assemblies' ) ;
#113 = EDGE_LOOP ( 'NONE', ( #197 ) ) ;
#114 = PRODUCT_DEFINITION_FORMATION_WITH_SPECIFIED_SOURCE ( 'ANY', '', #137, .NOT_KNOWN. ) ;
#115 = ORIENTED_EDGE ( 'NONE', *, *, #133, .T. ) ;
#116 = ADVANCED_FACE ( 'NONE', ( #101, #164 ), #145, .T. ) ;
#117 = EDGE_LOOP ( 'NONE', ( #115 ) ) ;
#118 = CIRCLE ( 'NONE', #70, 4.499999999999997335 ) ;
#119 = CARTESIAN_POINT ( 'NONE',  ( 5.586370142149013368E-14, 3.749399456654637451E-32, 16.00000000000000000 ) ) ;
#120 = DIRECTION ( 'NONE',  ( -3.491481338843133355E-15, 1.224646799147353207E-16, -1.000000000000000000 ) ) ;
#121 = FACE_OUTER_BOUND ( 'NONE', #184, .T. ) ;
#122 = COORDINATED_UNIVERSAL_TIME_OFFSET ( 1, 0, .AHEAD. ) ;
#123 = APPROVAL_PERSON_ORGANIZATION ( #20, #223, #144 ) ;
#124 = DIRECTION ( 'NONE',  ( 0.0000000000000000000, -1.000000000000000000, 0.0000000000000000000 ) ) ;
#125 = COORDINATED_UNIVERSAL_TIME_OFFSET ( 1, 0, .AHEAD. ) ;
#126 = DIRECTION ( 'NONE',  ( 0.0000000000000000000, 1.000000000000000000, 0.0000000000000000000 ) ) ;
#127 = VERTEX_POINT ( 'NONE', #239 ) ;
#128 = APPROVAL_DATE_TIME ( #24, #141 ) ;
#129 = DIRECTION ( 'NONE',  ( -4.275831445896958607E-31, -1.000000000000000000, -1.224646799147353207E-16 ) ) ;
#130 = ORIENTED_EDGE ( 'NONE', *, *, #60, .T. ) ;
#131 = APPROVAL_STATUS ( 'not_yet_approved' ) ;
#132 = DIRECTION ( 'NONE',  ( 3.491481338843133355E-15, -1.227517819005651059E-16, 1.000000000000000000 ) ) ;
#133 = EDGE_CURVE ( 'NONE', #72, #72, #194, .T. ) ;
#134 = AXIS2_PLACEMENT_3D ( 'NONE', #21, #120, #225 ) ;
#135 = CC_DESIGN_PERSON_AND_ORGANIZATION_ASSIGNMENT ( #205, #238, ( #16 ) ) ;
#136 = ORGANIZATION ( 'UNSPECIFIED', 'UNSPECIFIED', '' ) ;
#137 = PRODUCT ( '28937', '28937', '', ( #46 ) ) ;
#138 = EDGE_LOOP ( 'NONE', ( #153 ) ) ;
#139 = DIRECTION ( 'NONE',  ( 3.491481338843133355E-15, -1.227517819005651059E-16, 1.000000000000000000 ) ) ;
#140 = ADVANCED_BREP_SHAPE_REPRESENTATION ( '28937', ( #95, #89, #102 ), #224 ) ;
#141 = APPROVAL ( #232, 'UNSPECIFIED' ) ;
#142 = DIRECTION ( 'NONE',  ( 0.0000000000000000000, 1.000000000000000000, 0.0000000000000000000 ) ) ;
#143 = DIRECTION ( 'NONE',  ( 0.0000000000000000000, 1.000000000000000000, 0.0000000000000000000 ) ) ;
#144 = APPROVAL_ROLE ( '' ) ;
#145 = CYLINDRICAL_SURFACE ( 'NONE', #181, 4.499999999999997335 ) ;
#146 = DATE_TIME_ROLE ( 'classification_date' ) ;
#147 =( LENGTH_UNIT ( ) NAMED_UNIT ( * ) SI_UNIT ( .MILLI., .METRE. ) );
#148 = COORDINATED_UNIVERSAL_TIME_OFFSET ( 1, 0, .AHEAD. ) ;
#149 = AXIS2_PLACEMENT_3D ( 'NONE', #58, #227, #143 ) ;
#150 = UNCERTAINTY_MEASURE_WITH_UNIT (LENGTH_MEASURE( 1.000000000000000082E-05 ), #147, 'distance_accuracy_value', 'NONE');
#151 = PLANE ( 'NONE',  #243 ) ;
#152 = EDGE_CURVE ( 'NONE', #237, #237, #96, .T. ) ;
#153 = ORIENTED_EDGE ( 'NONE', *, *, #152, .F. ) ;
#154 = DATE_AND_TIME ( #93, #92 ) ;
#155 = CLOSED_SHELL ( 'NONE', ( #35, #94, #191, #97, #30 ) ) ;
#156 = CC_DESIGN_PERSON_AND_ORGANIZATION_ASSIGNMENT ( #178, #5, ( #57 ) ) ;
#157 = DIRECTION ( 'NONE',  ( 3.491481338843133355E-15, -1.226656096638776648E-16, 1.000000000000000000 ) ) ;
#158 = DIRECTION ( 'NONE',  ( 1.000000000000000000, 0.0000000000000000000, 0.0000000000000000000 ) ) ;
#159 = CARTESIAN_POINT ( 'NONE',  ( 5.586370142149013368E-14, -1.734723475976807094E-15, 16.00000000000000000 ) ) ;
#160 = CIRCLE ( 'NONE', #149, 5.000000000000000888 ) ;
#161 = CARTESIAN_POINT ( 'NONE',  ( 6.982962677686248961E-16, -2.453312193277549783E-17, 0.1999999999999994837 ) ) ;
#162 = FACE_BOUND ( 'NONE', #51, .T. ) ;
#163 = PERSON_AND_ORGANIZATION ( #44, #136 ) ;
#164 = FACE_OUTER_BOUND ( 'NONE', #192, .T. ) ;
#165 = CLOSED_SHELL ( 'NONE', ( #116, #26, #78, #180 ) ) ;
#166 = DIRECTION ( 'NONE',  ( 3.491481338843133355E-15, -1.226656096638776648E-16, 1.000000000000000000 ) ) ;
#167 = DIRECTION ( 'NONE',  ( 4.275831445896958607E-31, 1.000000000000000000, 1.224646799147353207E-16 ) ) ;
#168 = VERTEX_POINT ( 'NONE', #53 ) ;
#169 = DATE_AND_TIME ( #74, #103 ) ;
#170 = DIRECTION ( 'NONE',  ( -3.491481338843133355E-15, 1.224646799147353207E-16, -1.000000000000000000 ) ) ;
#171 = PERSON_AND_ORGANIZATION ( #44, #136 ) ;
#172 = AXIS2_PLACEMENT_3D ( 'NONE', #212, #82, #195 ) ;
#173 = CC_DESIGN_DATE_AND_TIME_ASSIGNMENT ( #81, #10, ( #57 ) ) ;
#174 = ORIENTED_EDGE ( 'NONE', *, *, #17, .F. ) ;
#175 = FACE_OUTER_BOUND ( 'NONE', #138, .T. ) ;
#176 = PERSON_AND_ORGANIZATION_ROLE ( 'design_owner' ) ;
#177 = PLANE ( 'NONE',  #28 ) ;
#178 = PERSON_AND_ORGANIZATION ( #44, #136 ) ;
#179 = ORIENTED_EDGE ( 'NONE', *, *, #105, .T. ) ;
#180 = ADVANCED_FACE ( 'NONE', ( #3 ), #83, .F. ) ;
#181 = AXIS2_PLACEMENT_3D ( 'NONE', #217, #19, #98 ) ;
#182 = DIRECTION ( 'NONE',  ( -4.275831445896958607E-31, -1.000000000000000000, -1.224646799147353207E-16 ) ) ;
#183 = CALENDAR_DATE ( 2021, 1, 11 ) ;
#184 = EDGE_LOOP ( 'NONE', ( #174 ) ) ;
#185 = AXIS2_PLACEMENT_3D ( 'NONE', #63, #104, #124 ) ;
#186 =( NAMED_UNIT ( * ) SI_UNIT ( $, .STERADIAN. ) SOLID_ANGLE_UNIT ( ) );
#187 = CARTESIAN_POINT ( 'NONE',  ( 6.558357410743854824E-14, 4.999999999999995559, 18.78388218141500943 ) ) ;
#188 = LOCAL_TIME ( 10, 15, 59.00000000000000000, #122 ) ;
#189 = CIRCLE ( 'NONE', #91, 4.500000000000000000 ) ;
#190 = APPLICATION_CONTEXT ( 'configuration controlled 3d designs of mechanical parts and assemblies' ) ;
#191 = ADVANCED_FACE ( 'NONE', ( #25 ), #151, .F. ) ;
#192 = EDGE_LOOP ( 'NONE', ( #211 ) ) ;
#193 = EDGE_LOOP ( 'NONE', ( #6 ) ) ;
#194 = CIRCLE ( 'NONE', #185, 4.499999999999997335 ) ;
#195 = DIRECTION ( 'NONE',  ( 4.275831445896959482E-31, 1.000000000000000000, 1.224646799147353207E-16 ) ) ;
#196 = EDGE_LOOP ( 'NONE', ( #1 ) ) ;
#197 = ORIENTED_EDGE ( 'NONE', *, *, #230, .F. ) ;
#198 = AXIS2_PLACEMENT_3D ( 'NONE', #79, #76, #142 ) ;
#199 = DIRECTION ( 'NONE',  ( -4.275831445896958607E-31, -1.000000000000000000, -1.224646799147353207E-16 ) ) ;
#200 = CALENDAR_DATE ( 2021, 1, 11 ) ;
#201 = PERSON_AND_ORGANIZATION_ROLE ( 'design_supplier' ) ;
#202 = CONICAL_SURFACE ( 'NONE', #198, 4.000000000000000888, 0.7853981633974410625 ) ;
#203 = CC_DESIGN_APPROVAL ( #141, ( #114 ) ) ;
#204 = CC_DESIGN_DATE_AND_TIME_ASSIGNMENT ( #169, #146, ( #16 ) ) ;
#205 = PERSON_AND_ORGANIZATION ( #44, #136 ) ;
#206 = CARTESIAN_POINT ( 'NONE',  ( 2.478951750578623799E-13, 4.999999999999992006, 70.99999999999998579 ) ) ;
#207 = CARTESIAN_POINT ( 'NONE',  ( 6.982962677686230226E-16, -4.500000000000000000, 0.1999999999999989564 ) ) ;
#208 = EDGE_LOOP ( 'NONE', ( #31 ) ) ;
#209 = CIRCLE ( 'NONE', #134, 4.000000000000000888 ) ;
#210 = APPROVAL ( #131, 'UNSPECIFIED' ) ;
#211 = ORIENTED_EDGE ( 'NONE', *, *, #226, .T. ) ;
#212 = CARTESIAN_POINT ( 'NONE',  ( 0.0000000000000000000, 0.0000000000000000000, 0.0000000000000000000 ) ) ;
#213 = APPROVAL_STATUS ( 'not_yet_approved' ) ;
#214 = FACE_OUTER_BOUND ( 'NONE', #193, .T. ) ;
#215 = DIRECTION ( 'NONE',  ( 3.491481338843133355E-15, -1.224646799147353207E-16, 1.000000000000000000 ) ) ;
#216 = LOCAL_TIME ( 10, 15, 59.00000000000000000, #40 ) ;
#217 = CARTESIAN_POINT ( 'NONE',  ( -6.413731847436034514E-31, 0.0000000000000000000, -1.836965810494968570E-16 ) ) ;
#218 = APPLICATION_PROTOCOL_DEFINITION ( 'international standard', 'config_control_design', 1994, #112 ) ;
#219 = PERSON_AND_ORGANIZATION ( #44, #136 ) ;
#220 = APPROVAL_ROLE ( '' ) ;
#221 = COORDINATED_UNIVERSAL_TIME_OFFSET ( 1, 0, .AHEAD. ) ;
#222 = AXIS2_PLACEMENT_3D ( 'NONE', #27, #109, #129 ) ;
#223 = APPROVAL ( #213, 'UNSPECIFIED' ) ;
#224 =( GEOMETRIC_REPRESENTATION_CONTEXT ( 3 ) GLOBAL_UNCERTAINTY_ASSIGNED_CONTEXT ( ( #150 ) ) GLOBAL_UNIT_ASSIGNED_CONTEXT ( ( #147, #29, #186 ) ) REPRESENTATION_CONTEXT ( 'NONE', 'WORKASPACE' ) );
#225 = DIRECTION ( 'NONE',  ( 0.0000000000000000000, 1.000000000000000000, 0.0000000000000000000 ) ) ;
#226 = EDGE_CURVE ( 'NONE', #13, #13, #189, .T. ) ;
#227 = DIRECTION ( 'NONE',  ( -3.491481338843133355E-15, 1.224646799147353207E-16, -1.000000000000000000 ) ) ;
#228 = CONICAL_SURFACE ( 'NONE', #43, 4.500000000000000000, 0.7853981633974430610 ) ;
#229 = DIRECTION ( 'NONE',  ( -4.279844320860524021E-31, -1.000000000000000000, -1.204669080539449344E-16 ) ) ;
#230 = EDGE_CURVE ( 'NONE', #235, #235, #118, .T. ) ;
#231 = DIRECTION ( 'NONE',  ( 3.491481338843133355E-15, -1.226656096638776648E-16, 1.000000000000000000 ) ) ;
#232 = APPROVAL_STATUS ( 'not_yet_approved' ) ;
#233 = ORIENTED_EDGE ( 'NONE', *, *, #60, .F. ) ;
#234 = DIRECTION ( 'NONE',  ( -4.279844320860524021E-31, -1.000000000000000000, -1.204669080539449344E-16 ) ) ;
#235 = VERTEX_POINT ( 'NONE', #88 ) ;
#236 = PRODUCT_RELATED_PRODUCT_CATEGORY ( 'detail', '', ( #137 ) ) ;
#237 = VERTEX_POINT ( 'NONE', #187 ) ;
#238 = PERSON_AND_ORGANIZATION_ROLE ( 'classification_officer' ) ;
#239 = CARTESIAN_POINT ( 'NONE',  ( -3.683248308709506368E-30, -4.300000000000001599, -1.054924243109348326E-15 ) ) ;
#240 = APPROVAL_DATE_TIME ( #154, #210 ) ;
#241 = EDGE_LOOP ( 'NONE', ( #34 ) ) ;
#242 = SECURITY_CLASSIFICATION_LEVEL ( 'unclassified' ) ;
#243 = AXIS2_PLACEMENT_3D ( 'NONE', #86, #170, #167 ) ;
ENDSEC;
END-ISO-10303-21;
