ISO-10303-21;
HEADER;
FILE_DESCRIPTION (( 'STEP AP203' ),
    '1' );
FILE_NAME ('28936.step',
    '2021-11-01T09:15:59',
    ( '' ),
    ( '' ),
    'SwSTEP 2.0',
    'SolidWorks 2019',
    '' );
FILE_SCHEMA (( 'CONFIG_CONTROL_DESIGN' ));
ENDSEC;

DATA;
#1 = CC_DESIGN_DATE_AND_TIME_ASSIGNMENT ( #213, #174, ( #74 ) ) ;
#2 = ORIENTED_EDGE ( 'NONE', *, *, #58, .F. ) ;
#3 = DIRECTION ( 'NONE',  ( -4.275831445896958607E-31, -1.000000000000000000, -1.224646799147353207E-16 ) ) ;
#4 =( GEOMETRIC_REPRESENTATION_CONTEXT ( 3 ) GLOBAL_UNCERTAINTY_ASSIGNED_CONTEXT ( ( #85 ) ) GLOBAL_UNIT_ASSIGNED_CONTEXT ( ( #110, #151, #170 ) ) REPRESENTATION_CONTEXT ( 'NONE', 'WORKASPACE' ) );
#5 = PERSON_AND_ORGANIZATION ( #31, #18 ) ;
#6 = DIRECTION ( 'NONE',  ( 3.491481338843133355E-15, -1.224646799147353207E-16, 1.000000000000000000 ) ) ;
#7 = APPROVAL_STATUS ( 'not_yet_approved' ) ;
#8 = DIRECTION ( 'NONE',  ( 0.0000000000000000000, -1.000000000000000000, 0.0000000000000000000 ) ) ;
#9 = MANIFOLD_SOLID_BREP ( 'Corps-Déplacer/Copier1[2]', #226 ) ;
#10 = COORDINATED_UNIVERSAL_TIME_OFFSET ( 1, 0, .AHEAD. ) ;
#11 = DIRECTION ( 'NONE',  ( 3.491481338843133355E-15, -1.224646799147353207E-16, 1.000000000000000000 ) ) ;
#12 = AXIS2_PLACEMENT_3D ( 'NONE', #229, #189, #124 ) ;
#13 = DATE_AND_TIME ( #48, #209 ) ;
#14 = FACE_BOUND ( 'NONE', #96, .T. ) ;
#15 = EDGE_CURVE ( 'NONE', #137, #137, #158, .T. ) ;
#16 = PERSON_AND_ORGANIZATION_ROLE ( 'classification_officer' ) ;
#17 = CARTESIAN_POINT ( 'NONE',  ( 0.0000000000000000000, 0.0000000000000000000, 0.0000000000000000000 ) ) ;
#18 = ORGANIZATION ( 'UNSPECIFIED', 'UNSPECIFIED', '' ) ;
#19 = ORIENTED_EDGE ( 'NONE', *, *, #64, .F. ) ;
#20 = AXIS2_PLACEMENT_3D ( 'NONE', #193, #177, #90 ) ;
#21 = CC_DESIGN_PERSON_AND_ORGANIZATION_ASSIGNMENT ( #143, #126, ( #50 ) ) ;
#22 = PERSON_AND_ORGANIZATION ( #31, #18 ) ;
#23 = DIRECTION ( 'NONE',  ( -4.275831445896958607E-31, -1.000000000000000000, -1.224646799147353207E-16 ) ) ;
#24 = DIRECTION ( 'NONE',  ( 0.0000000000000000000, -1.000000000000000000, 0.0000000000000000000 ) ) ;
#25 = CONICAL_SURFACE ( 'NONE', #146, 4.250000000000000000, 0.7853981633974430610 ) ;
#26 = PERSON_AND_ORGANIZATION ( #31, #18 ) ;
#27 = CARTESIAN_POINT ( 'NONE',  ( 2.513866563967056016E-13, -8.817456953860941711E-15, 72.00000000000000000 ) ) ;
#28 = DIRECTION ( 'NONE',  ( 0.0000000000000000000, 1.000000000000000000, 0.0000000000000000000 ) ) ;
#29 = DIRECTION ( 'NONE',  ( 3.491481338843133355E-15, -1.224646799147353207E-16, 1.000000000000000000 ) ) ;
#30 = ADVANCED_FACE ( 'NONE', ( #153, #45 ), #234, .T. ) ;
#31 = PERSON ( 'UNSPECIFIED', 'UNSPECIFIED', 'UNSPECIFIED', ('UNSPECIFIED'), ('UNSPECIFIED'), ('UNSPECIFIED') ) ;
#32 = APPROVAL_PERSON_ORGANIZATION ( #22, #155, #98 ) ;
#33 = PRODUCT ( '28936', '28936', '', ( #182 ) ) ;
#34 = VERTEX_POINT ( 'NONE', #239 ) ;
#35 = EDGE_LOOP ( 'NONE', ( #55 ) ) ;
#36 = DATE_AND_TIME ( #220, #217 ) ;
#37 = DIRECTION ( 'NONE',  ( 0.0000000000000000000, 0.0000000000000000000, 1.000000000000000000 ) ) ;
#38 = ORIENTED_EDGE ( 'NONE', *, *, #109, .F. ) ;
#39 = AXIS2_PLACEMENT_3D ( 'NONE', #17, #228, #62 ) ;
#40 = ORIENTED_EDGE ( 'NONE', *, *, #88, .T. ) ;
#41 = PLANE ( 'NONE',  #214 ) ;
#42 = VERTEX_POINT ( 'NONE', #131 ) ;
#43 = DIRECTION ( 'NONE',  ( 4.275831445896958607E-31, 1.000000000000000000, 1.224646799147353207E-16 ) ) ;
#44 = CC_DESIGN_PERSON_AND_ORGANIZATION_ASSIGNMENT ( #5, #185, ( #33 ) ) ;
#45 = FACE_BOUND ( 'NONE', #132, .T. ) ;
#46 = AXIS2_PLACEMENT_3D ( 'NONE', #27, #122, #63 ) ;
#47 = FACE_OUTER_BOUND ( 'NONE', #133, .T. ) ;
#48 = CALENDAR_DATE ( 2021, 1, 11 ) ;
#49 = FACE_OUTER_BOUND ( 'NONE', #59, .T. ) ;
#50 = PRODUCT_DEFINITION_FORMATION_WITH_SPECIFIED_SOURCE ( 'ANY', '', #33, .NOT_KNOWN. ) ;
#51 = PERSON_AND_ORGANIZATION_ROLE ( 'creator' ) ;
#52 = CLOSED_SHELL ( 'NONE', ( #224, #30, #215, #205, #107 ) ) ;
#53 = AXIS2_PLACEMENT_3D ( 'NONE', #70, #142, #204 ) ;
#54 = APPROVAL_DATE_TIME ( #36, #155 ) ;
#55 = ORIENTED_EDGE ( 'NONE', *, *, #15, .T. ) ;
#56 = AXIS2_PLACEMENT_3D ( 'NONE', #141, #154, #231 ) ;
#57 = EDGE_LOOP ( 'NONE', ( #222 ) ) ;
#58 = EDGE_CURVE ( 'NONE', #34, #34, #196, .T. ) ;
#59 = EDGE_LOOP ( 'NONE', ( #76 ) ) ;
#60 = EDGE_LOOP ( 'NONE', ( #2 ) ) ;
#61 = FACE_OUTER_BOUND ( 'NONE', #200, .T. ) ;
#62 = DIRECTION ( 'NONE',  ( 4.275831445896959482E-31, 1.000000000000000000, 1.224646799147353207E-16 ) ) ;
#63 = DIRECTION ( 'NONE',  ( 0.0000000000000000000, 1.000000000000000000, 0.0000000000000000000 ) ) ;
#64 = EDGE_CURVE ( 'NONE', #77, #77, #179, .T. ) ;
#65 = FACE_OUTER_BOUND ( 'NONE', #60, .T. ) ;
#66 = CARTESIAN_POINT ( 'NONE',  ( -1.734552982589942547E-30, 3.434088566918675625E-32, -4.967957191387047901E-16 ) ) ;
#67 = LOCAL_TIME ( 10, 15, 59.00000000000000000, #241 ) ;
#68 = DATE_AND_TIME ( #145, #78 ) ;
#69 = CC_DESIGN_PERSON_AND_ORGANIZATION_ASSIGNMENT ( #235, #51, ( #50 ) ) ;
#70 = CARTESIAN_POINT ( 'NONE',  ( 5.586370142149013368E-14, -1.734723475976807094E-15, 16.00000000000000000 ) ) ;
#71 = CC_DESIGN_APPROVAL ( #178, ( #74 ) ) ;
#72 = APPROVAL_ROLE ( '' ) ;
#73 = DESIGN_CONTEXT ( 'detailed design', #173, 'design' ) ;
#74 = SECURITY_CLASSIFICATION ( '', '', #181 ) ;
#75 = VERTEX_POINT ( 'NONE', #219 ) ;
#76 = ORIENTED_EDGE ( 'NONE', *, *, #15, .F. ) ;
#77 = VERTEX_POINT ( 'NONE', #230 ) ;
#78 = LOCAL_TIME ( 10, 15, 59.00000000000000000, #232 ) ;
#79 = ORIENTED_EDGE ( 'NONE', *, *, #134, .F. ) ;
#80 = LOCAL_TIME ( 10, 15, 59.00000000000000000, #216 ) ;
#81 = ADVANCED_FACE ( 'NONE', ( #47 ), #102, .F. ) ;
#82 = CARTESIAN_POINT ( 'NONE',  ( 6.982962677686250933E-16, -2.453312193277550399E-17, 0.1999999999999995393 ) ) ;
#83 = COORDINATED_UNIVERSAL_TIME_OFFSET ( 1, 0, .AHEAD. ) ;
#84 = DIRECTION ( 'NONE',  ( 3.491481338843133355E-15, -1.227517819005651059E-16, 1.000000000000000000 ) ) ;
#85 = UNCERTAINTY_MEASURE_WITH_UNIT (LENGTH_MEASURE( 1.000000000000000082E-05 ), #110, 'distance_accuracy_value', 'NONE');
#86 = APPROVAL_DATE_TIME ( #13, #178 ) ;
#87 = CARTESIAN_POINT ( 'NONE',  ( 5.586370142149013368E-14, -1.964028510409041694E-15, 16.00000000000000000 ) ) ;
#88 = EDGE_CURVE ( 'NONE', #75, #75, #183, .T. ) ;
#89 = MANIFOLD_SOLID_BREP ( 'Corps-Déplacer/Copier1[1]', #52 ) ;
#90 = DIRECTION ( 'NONE',  ( -4.285855558155654155E-31, -1.000000000000000000, -1.227517819005651305E-16 ) ) ;
#91 = DATE_AND_TIME ( #194, #67 ) ;
#92 = CC_DESIGN_APPROVAL ( #155, ( #198 ) ) ;
#93 = CARTESIAN_POINT ( 'NONE',  ( 6.767167244461324493E-14, 4.999999999999995559, 19.38193731461717206 ) ) ;
#94 = APPROVAL_PERSON_ORGANIZATION ( #26, #127, #72 ) ;
#95 = EDGE_LOOP ( 'NONE', ( #186 ) ) ;
#96 = EDGE_LOOP ( 'NONE', ( #135 ) ) ;
#97 = ORIENTED_EDGE ( 'NONE', *, *, #134, .T. ) ;
#98 = APPROVAL_ROLE ( '' ) ;
#99 = FACE_OUTER_BOUND ( 'NONE', #115, .T. ) ;
#100 = FACE_OUTER_BOUND ( 'NONE', #35, .T. ) ;
#101 = PERSON_AND_ORGANIZATION ( #31, #18 ) ;
#102 = PLANE ( 'NONE',  #125 ) ;
#103 = DATE_TIME_ROLE ( 'creation_date' ) ;
#104 = DIRECTION ( 'NONE',  ( 3.491481338843133355E-15, -1.226656096638776648E-16, 1.000000000000000000 ) ) ;
#105 = CARTESIAN_POINT ( 'NONE',  ( 5.586370142149013368E-14, -1.964028510409041694E-15, 16.00000000000000000 ) ) ;
#106 = APPROVAL_STATUS ( 'not_yet_approved' ) ;
#107 = ADVANCED_FACE ( 'NONE', ( #61 ), #123, .F. ) ;
#108 = CYLINDRICAL_SURFACE ( 'NONE', #39, 4.999999999999997335 ) ;
#109 = EDGE_CURVE ( 'NONE', #206, #206, #227, .T. ) ;
#110 =( LENGTH_UNIT ( ) NAMED_UNIT ( * ) SI_UNIT ( .MILLI., .METRE. ) );
#111 = ORIENTED_EDGE ( 'NONE', *, *, #64, .T. ) ;
#112 = PERSON_AND_ORGANIZATION_ROLE ( 'creator' ) ;
#113 = CC_DESIGN_PERSON_AND_ORGANIZATION_ASSIGNMENT ( #168, #112, ( #198 ) ) ;
#114 = APPLICATION_PROTOCOL_DEFINITION ( 'international standard', 'config_control_design', 1994, #176 ) ;
#115 = EDGE_LOOP ( 'NONE', ( #97 ) ) ;
#116 = AXIS2_PLACEMENT_3D ( 'NONE', #120, #37, #199 ) ;
#117 = ADVANCED_FACE ( 'NONE', ( #14, #169 ), #25, .T. ) ;
#118 = DIRECTION ( 'NONE',  ( -4.275831445896958607E-31, -1.000000000000000000, -1.224646799147353207E-16 ) ) ;
#119 = FACE_OUTER_BOUND ( 'NONE', #57, .T. ) ;
#120 = CARTESIAN_POINT ( 'NONE',  ( 0.0000000000000000000, 0.0000000000000000000, 0.0000000000000000000 ) ) ;
#121 = CC_DESIGN_APPROVAL ( #127, ( #50 ) ) ;
#122 = DIRECTION ( 'NONE',  ( -3.491481338843133355E-15, 1.224646799147353207E-16, -1.000000000000000000 ) ) ;
#123 = PLANE ( 'NONE',  #129 ) ;
#124 = DIRECTION ( 'NONE',  ( 0.0000000000000000000, 1.000000000000000000, 0.0000000000000000000 ) ) ;
#125 = AXIS2_PLACEMENT_3D ( 'NONE', #225, #11, #118 ) ;
#126 = PERSON_AND_ORGANIZATION_ROLE ( 'design_supplier' ) ;
#127 = APPROVAL ( #106, 'UNSPECIFIED' ) ;
#128 = AXIS2_PLACEMENT_3D ( 'NONE', #66, #180, #188 ) ;
#129 = AXIS2_PLACEMENT_3D ( 'NONE', #175, #29, #23 ) ;
#130 = ADVANCED_BREP_SHAPE_REPRESENTATION ( '28936', ( #89, #9, #116 ), #4 ) ;
#131 = CARTESIAN_POINT ( 'NONE',  ( 6.982962677686233184E-16, -4.250000000000000000, 0.1999999999999990397 ) ) ;
#132 = EDGE_LOOP ( 'NONE', ( #40 ) ) ;
#133 = EDGE_LOOP ( 'NONE', ( #38 ) ) ;
#134 = EDGE_CURVE ( 'NONE', #42, #42, #164, .T. ) ;
#135 = ORIENTED_EDGE ( 'NONE', *, *, #109, .T. ) ;
#136 = DIRECTION ( 'NONE',  ( -4.305019875689115797E-31, -1.000000000000000000, -1.211755369248505057E-16 ) ) ;
#137 = VERTEX_POINT ( 'NONE', #93 ) ;
#138 = PLANE ( 'NONE',  #238 ) ;
#139 = CARTESIAN_POINT ( 'NONE',  ( 2.478951750578623799E-13, 4.999999999999992006, 70.99999999999998579 ) ) ;
#140 = CARTESIAN_POINT ( 'NONE',  ( 5.586370142149013368E-14, 3.749399456654637451E-32, 16.00000000000000000 ) ) ;
#141 = CARTESIAN_POINT ( 'NONE',  ( 2.478951750578623799E-13, -8.694992273946204985E-15, 70.99999999999998579 ) ) ;
#142 = DIRECTION ( 'NONE',  ( 3.491481338843133355E-15, -1.227517819005651059E-16, 1.000000000000000000 ) ) ;
#143 = PERSON_AND_ORGANIZATION ( #31, #18 ) ;
#144 = EDGE_CURVE ( 'NONE', #201, #201, #148, .T. ) ;
#145 = CALENDAR_DATE ( 2021, 1, 11 ) ;
#146 = AXIS2_PLACEMENT_3D ( 'NONE', #192, #157, #136 ) ;
#147 = PRODUCT_DEFINITION_SHAPE ( 'NONE', 'NONE',  #198 ) ;
#148 = CIRCLE ( 'NONE', #56, 5.000000000000000888 ) ;
#149 = APPROVAL_STATUS ( 'not_yet_approved' ) ;
#150 = EDGE_LOOP ( 'NONE', ( #184 ) ) ;
#151 =( NAMED_UNIT ( * ) PLANE_ANGLE_UNIT ( ) SI_UNIT ( $, .RADIAN. ) );
#152 = EDGE_LOOP ( 'NONE', ( #79 ) ) ;
#153 = FACE_OUTER_BOUND ( 'NONE', #95, .T. ) ;
#154 = DIRECTION ( 'NONE',  ( -3.491481338843133355E-15, 1.224646799147353207E-16, -1.000000000000000000 ) ) ;
#155 = APPROVAL ( #149, 'UNSPECIFIED' ) ;
#156 = SHAPE_DEFINITION_REPRESENTATION ( #147, #130 ) ;
#157 = DIRECTION ( 'NONE',  ( 3.491481338843133355E-15, -1.226656096638776648E-16, 1.000000000000000000 ) ) ;
#158 = CIRCLE ( 'NONE', #187, 4.999999999999997335 ) ;
#159 = TOROIDAL_SURFACE ( 'NONE', #53, 12.24999999999999467, 7.999999999999998224 ) ;
#160 = FACE_OUTER_BOUND ( 'NONE', #223, .T. ) ;
#161 = APPROVAL_DATE_TIME ( #68, #127 ) ;
#162 = CALENDAR_DATE ( 2021, 1, 11 ) ;
#163 = AXIS2_PLACEMENT_3D ( 'NONE', #105, #84, #24 ) ;
#164 = CIRCLE ( 'NONE', #243, 4.250000000000000000 ) ;
#165 = CC_DESIGN_DATE_AND_TIME_ASSIGNMENT ( #91, #103, ( #198 ) ) ;
#166 = CC_DESIGN_SECURITY_CLASSIFICATION ( #74, ( #50 ) ) ;
#167 = EDGE_LOOP ( 'NONE', ( #242 ) ) ;
#168 = PERSON_AND_ORGANIZATION ( #31, #18 ) ;
#169 = FACE_OUTER_BOUND ( 'NONE', #152, .T. ) ;
#170 =( NAMED_UNIT ( * ) SI_UNIT ( $, .STERADIAN. ) SOLID_ANGLE_UNIT ( ) );
#171 = ADVANCED_FACE ( 'NONE', ( #65, #99 ), #211, .T. ) ;
#172 = FACE_OUTER_BOUND ( 'NONE', #150, .T. ) ;
#173 = APPLICATION_CONTEXT ( 'configuration controlled 3d designs of mechanical parts and assemblies' ) ;
#174 = DATE_TIME_ROLE ( 'classification_date' ) ;
#175 = CARTESIAN_POINT ( 'NONE',  ( 5.586370142149013368E-14, 3.749399456654637451E-32, 16.00000000000000000 ) ) ;
#176 = APPLICATION_CONTEXT ( 'configuration controlled 3d designs of mechanical parts and assemblies' ) ;
#177 = DIRECTION ( 'NONE',  ( 3.491481338843133355E-15, -1.227517819005651059E-16, 1.000000000000000000 ) ) ;
#178 = APPROVAL ( #7, 'UNSPECIFIED' ) ;
#179 = CIRCLE ( 'NONE', #163, 4.249999999999998224 ) ;
#180 = DIRECTION ( 'NONE',  ( 3.491481338843133355E-15, -1.226656096638776648E-16, 1.000000000000000000 ) ) ;
#181 = SECURITY_CLASSIFICATION_LEVEL ( 'unclassified' ) ;
#182 = MECHANICAL_CONTEXT ( 'NONE', #176, 'mechanical' ) ;
#183 = CIRCLE ( 'NONE', #46, 4.000000000000000888 ) ;
#184 = ORIENTED_EDGE ( 'NONE', *, *, #58, .T. ) ;
#185 = PERSON_AND_ORGANIZATION_ROLE ( 'design_owner' ) ;
#186 = ORIENTED_EDGE ( 'NONE', *, *, #144, .F. ) ;
#187 = AXIS2_PLACEMENT_3D ( 'NONE', #202, #195, #28 ) ;
#188 = DIRECTION ( 'NONE',  ( -4.282846870592448247E-31, -1.000000000000000000, -1.226656096638776401E-16 ) ) ;
#189 = DIRECTION ( 'NONE',  ( -3.491481338843133355E-15, 1.224646799147353207E-16, -1.000000000000000000 ) ) ;
#190 = PRODUCT_RELATED_PRODUCT_CATEGORY ( 'detail', '', ( #33 ) ) ;
#191 = CARTESIAN_POINT ( 'NONE',  ( -3.469105965179885094E-30, -4.050000000000002487, -9.935914382774095801E-16 ) ) ;
#192 = CARTESIAN_POINT ( 'NONE',  ( 6.982962677686250933E-16, -2.453312193277550399E-17, 0.1999999999999995393 ) ) ;
#193 = CARTESIAN_POINT ( 'NONE',  ( -6.413731847436034514E-31, 0.0000000000000000000, -1.836965810494968570E-16 ) ) ;
#194 = CALENDAR_DATE ( 2021, 1, 11 ) ;
#195 = DIRECTION ( 'NONE',  ( -3.491481338843133355E-15, 1.227517819005651059E-16, -1.000000000000000000 ) ) ;
#196 = CIRCLE ( 'NONE', #221, 4.249999999999998224 ) ;
#197 = PERSON_AND_ORGANIZATION ( #31, #18 ) ;
#198 = PRODUCT_DEFINITION ( 'UNKNOWN', '', #50, #73 ) ;
#199 = DIRECTION ( 'NONE',  ( 1.000000000000000000, 0.0000000000000000000, 0.0000000000000000000 ) ) ;
#200 = EDGE_LOOP ( 'NONE', ( #19 ) ) ;
#201 = VERTEX_POINT ( 'NONE', #139 ) ;
#202 = CARTESIAN_POINT ( 'NONE',  ( 6.767167244461324493E-14, -2.149862307622076787E-15, 19.38193731461717206 ) ) ;
#203 = APPROVAL_PERSON_ORGANIZATION ( #197, #178, #237 ) ;
#204 = DIRECTION ( 'NONE',  ( -4.390765363205567760E-31, -1.000000000000000000, -1.227517819005651059E-16 ) ) ;
#205 = ADVANCED_FACE ( 'NONE', ( #160, #100 ), #159, .F. ) ;
#206 = VERTEX_POINT ( 'NONE', #191 ) ;
#207 = DIRECTION ( 'NONE',  ( -3.491481338843133355E-15, 1.224646799147353207E-16, -1.000000000000000000 ) ) ;
#208 = DIRECTION ( 'NONE',  ( 3.491481338843133355E-15, -1.227517819005651059E-16, 1.000000000000000000 ) ) ;
#209 = LOCAL_TIME ( 10, 15, 59.00000000000000000, #10 ) ;
#210 = ADVANCED_FACE ( 'NONE', ( #172 ), #41, .T. ) ;
#211 = CYLINDRICAL_SURFACE ( 'NONE', #20, 4.249999999999998224 ) ;
#212 = CARTESIAN_POINT ( 'NONE',  ( 2.513866563967056016E-13, 2.999519565323702626E-32, 72.00000000000000000 ) ) ;
#213 = DATE_AND_TIME ( #162, #80 ) ;
#214 = AXIS2_PLACEMENT_3D ( 'NONE', #140, #6, #3 ) ;
#215 = ADVANCED_FACE ( 'NONE', ( #236 ), #138, .F. ) ;
#216 = COORDINATED_UNIVERSAL_TIME_OFFSET ( 1, 0, .AHEAD. ) ;
#217 = LOCAL_TIME ( 10, 15, 59.00000000000000000, #83 ) ;
#218 = CC_DESIGN_PERSON_AND_ORGANIZATION_ASSIGNMENT ( #101, #16, ( #74 ) ) ;
#219 = CARTESIAN_POINT ( 'NONE',  ( 2.513866563967056016E-13, 3.999999999999992450, 72.00000000000000000 ) ) ;
#220 = CALENDAR_DATE ( 2021, 1, 11 ) ;
#221 = AXIS2_PLACEMENT_3D ( 'NONE', #87, #208, #8 ) ;
#222 = ORIENTED_EDGE ( 'NONE', *, *, #144, .T. ) ;
#223 = EDGE_LOOP ( 'NONE', ( #111 ) ) ;
#224 = ADVANCED_FACE ( 'NONE', ( #119, #49 ), #108, .T. ) ;
#225 = CARTESIAN_POINT ( 'NONE',  ( -8.551702076470480934E-31, 2.999533309458101739E-32, -2.449304821232125005E-16 ) ) ;
#226 = CLOSED_SHELL ( 'NONE', ( #171, #210, #117, #81 ) ) ;
#227 = CIRCLE ( 'NONE', #128, 4.050000000000002487 ) ;
#228 = DIRECTION ( 'NONE',  ( -3.491481338843133355E-15, 1.224646799147353207E-16, -1.000000000000000000 ) ) ;
#229 = CARTESIAN_POINT ( 'NONE',  ( 2.513866563967056016E-13, -8.817456953860941711E-15, 72.00000000000000000 ) ) ;
#230 = CARTESIAN_POINT ( 'NONE',  ( 5.586370142149013368E-14, -4.250000000000000000, 16.00000000000000000 ) ) ;
#231 = DIRECTION ( 'NONE',  ( 0.0000000000000000000, 1.000000000000000000, 0.0000000000000000000 ) ) ;
#232 = COORDINATED_UNIVERSAL_TIME_OFFSET ( 1, 0, .AHEAD. ) ;
#233 = DIRECTION ( 'NONE',  ( -4.305019875689115797E-31, -1.000000000000000000, -1.211755369248505057E-16 ) ) ;
#234 = CONICAL_SURFACE ( 'NONE', #12, 4.000000000000000888, 0.7853981633974410625 ) ;
#235 = PERSON_AND_ORGANIZATION ( #31, #18 ) ;
#236 = FACE_OUTER_BOUND ( 'NONE', #167, .T. ) ;
#237 = APPROVAL_ROLE ( '' ) ;
#238 = AXIS2_PLACEMENT_3D ( 'NONE', #212, #207, #43 ) ;
#239 = CARTESIAN_POINT ( 'NONE',  ( 5.586370142149013368E-14, -4.250000000000000000, 16.00000000000000000 ) ) ;
#240 = APPLICATION_PROTOCOL_DEFINITION ( 'international standard', 'config_control_design', 1994, #173 ) ;
#241 = COORDINATED_UNIVERSAL_TIME_OFFSET ( 1, 0, .AHEAD. ) ;
#242 = ORIENTED_EDGE ( 'NONE', *, *, #88, .F. ) ;
#243 = AXIS2_PLACEMENT_3D ( 'NONE', #82, #104, #233 ) ;
ENDSEC;
END-ISO-10303-21;
