ISO-10303-21;
HEADER;
FILE_DESCRIPTION (( 'STEP AP203' ),
    '1' );
FILE_NAME ('28934.step',
    '2021-11-01T09:15:58',
    ( '' ),
    ( '' ),
    'SwSTEP 2.0',
    'SolidWorks 2019',
    '' );
FILE_SCHEMA (( 'CONFIG_CONTROL_DESIGN' ));
ENDSEC;

DATA;
#1 = EDGE_LOOP ( 'NONE', ( #49 ) ) ;
#2 = DIRECTION ( 'NONE',  ( 4.275831445896958607E-31, 1.000000000000000000, 1.224646799147353207E-16 ) ) ;
#3 = CYLINDRICAL_SURFACE ( 'NONE', #119, 3.749999999999998224 ) ;
#4 = DIRECTION ( 'NONE',  ( 3.491481338843133355E-15, -1.227517819005651059E-16, 1.000000000000000000 ) ) ;
#5 = CLOSED_SHELL ( 'NONE', ( #194, #234, #202, #51 ) ) ;
#6 = CARTESIAN_POINT ( 'NONE',  ( 6.982962677686251919E-16, -2.453312193277550707E-17, 0.1999999999999995670 ) ) ;
#7 = CARTESIAN_POINT ( 'NONE',  ( 5.586370142149013368E-14, 2.999519565323710837E-32, 16.00000000000000000 ) ) ;
#8 = CARTESIAN_POINT ( 'NONE',  ( 2.171701392760429073E-13, 3.999999999999994671, 62.20000000000000284 ) ) ;
#9 = APPLICATION_PROTOCOL_DEFINITION ( 'international standard', 'config_control_design', 1994, #220 ) ;
#10 = PRODUCT_DEFINITION_FORMATION_WITH_SPECIFIED_SOURCE ( 'ANY', '', #192, .NOT_KNOWN. ) ;
#11 = VERTEX_POINT ( 'NONE', #118 ) ;
#12 = DATE_AND_TIME ( #32, #153 ) ;
#13 = PERSON_AND_ORGANIZATION ( #226, #134 ) ;
#14 = APPROVAL_ROLE ( '' ) ;
#15 = ORIENTED_EDGE ( 'NONE', *, *, #94, .T. ) ;
#16 = EDGE_LOOP ( 'NONE', ( #225 ) ) ;
#17 = EDGE_LOOP ( 'NONE', ( #243 ) ) ;
#18 = PRODUCT_DEFINITION ( 'UNKNOWN', '', #10, #72 ) ;
#19 = DIRECTION ( 'NONE',  ( -4.365441207277734308E-31, -1.000000000000000000, -1.228762462150238276E-16 ) ) ;
#20 = CIRCLE ( 'NONE', #239, 3.750000000000000000 ) ;
#21 = APPROVAL_PERSON_ORGANIZATION ( #144, #223, #14 ) ;
#22 = CARTESIAN_POINT ( 'NONE',  ( 6.279189491884146894E-14, -1.978301491901008397E-15, 17.98431348329844326 ) ) ;
#23 = UNCERTAINTY_MEASURE_WITH_UNIT (LENGTH_MEASURE( 1.000000000000000082E-05 ), #182, 'distance_accuracy_value', 'NONE');
#24 = PRODUCT_DEFINITION_SHAPE ( 'NONE', 'NONE',  #18 ) ;
#25 = DIRECTION ( 'NONE',  ( -3.491481338843133355E-15, 1.224646799147353207E-16, -1.000000000000000000 ) ) ;
#26 = PLANE ( 'NONE',  #160 ) ;
#27 = SECURITY_CLASSIFICATION ( '', '', #188 ) ;
#28 = DIRECTION ( 'NONE',  ( 0.0000000000000000000, 1.000000000000000000, 0.0000000000000000000 ) ) ;
#29 = CARTESIAN_POINT ( 'NONE',  ( 6.279189491884146894E-14, 3.999999999999998224, 17.98431348329844326 ) ) ;
#30 = CARTESIAN_POINT ( 'NONE',  ( 5.586370142149013368E-14, -3.750000000000000888, 16.00000000000000000 ) ) ;
#31 = ADVANCED_FACE ( 'NONE', ( #131, #154 ), #211, .T. ) ;
#32 = CALENDAR_DATE ( 2021, 1, 11 ) ;
#33 = APPROVAL_STATUS ( 'not_yet_approved' ) ;
#34 = SHAPE_DEFINITION_REPRESENTATION ( #24, #137 ) ;
#35 = TOROIDAL_SURFACE ( 'NONE', #58, 11.75000000000000000, 8.000000000000000000 ) ;
#36 = DATE_AND_TIME ( #169, #85 ) ;
#37 = ORIENTED_EDGE ( 'NONE', *, *, #142, .T. ) ;
#38 = CC_DESIGN_DATE_AND_TIME_ASSIGNMENT ( #36, #87, ( #27 ) ) ;
#39 = AXIS2_PLACEMENT_3D ( 'NONE', #181, #61, #163 ) ;
#40 = FACE_OUTER_BOUND ( 'NONE', #67, .T. ) ;
#41 = PLANE ( 'NONE',  #224 ) ;
#42 = DIRECTION ( 'NONE',  ( -3.491481338843133355E-15, 1.224646799147353207E-16, -1.000000000000000000 ) ) ;
#43 = DATE_TIME_ROLE ( 'creation_date' ) ;
#44 = CARTESIAN_POINT ( 'NONE',  ( 0.0000000000000000000, 0.0000000000000000000, 0.0000000000000000000 ) ) ;
#45 = CC_DESIGN_APPROVAL ( #60, ( #18 ) ) ;
#46 = CC_DESIGN_PERSON_AND_ORGANIZATION_ASSIGNMENT ( #13, #109, ( #10 ) ) ;
#47 = COORDINATED_UNIVERSAL_TIME_OFFSET ( 1, 0, .AHEAD. ) ;
#48 = EDGE_CURVE ( 'NONE', #139, #139, #20, .T. ) ;
#49 = ORIENTED_EDGE ( 'NONE', *, *, #108, .T. ) ;
#50 = FACE_OUTER_BOUND ( 'NONE', #16, .T. ) ;
#51 = ADVANCED_FACE ( 'NONE', ( #40 ), #26, .F. ) ;
#52 = CIRCLE ( 'NONE', #179, 3.200000000000003286 ) ;
#53 = DIRECTION ( 'NONE',  ( 0.0000000000000000000, 1.000000000000000000, 0.0000000000000000000 ) ) ;
#54 = DIRECTION ( 'NONE',  ( -3.491481338843133355E-15, 1.224646799147353207E-16, -1.000000000000000000 ) ) ;
#55 = CC_DESIGN_DATE_AND_TIME_ASSIGNMENT ( #63, #43, ( #18 ) ) ;
#56 = FACE_OUTER_BOUND ( 'NONE', #206, .T. ) ;
#57 = CIRCLE ( 'NONE', #102, 3.749999999999998668 ) ;
#58 = AXIS2_PLACEMENT_3D ( 'NONE', #80, #78, #222 ) ;
#59 = VERTEX_POINT ( 'NONE', #30 ) ;
#60 = APPROVAL ( #143, 'UNSPECIFIED' ) ;
#61 = DIRECTION ( 'NONE',  ( 3.491481338843133355E-15, -1.224646799147353207E-16, 1.000000000000000000 ) ) ;
#62 = PERSON_AND_ORGANIZATION ( #226, #134 ) ;
#63 = DATE_AND_TIME ( #100, #229 ) ;
#64 = COORDINATED_UNIVERSAL_TIME_OFFSET ( 1, 0, .AHEAD. ) ;
#65 = AXIS2_PLACEMENT_3D ( 'NONE', #157, #42, #28 ) ;
#66 = EDGE_LOOP ( 'NONE', ( #111 ) ) ;
#67 = EDGE_LOOP ( 'NONE', ( #168 ) ) ;
#68 = DATE_AND_TIME ( #167, #120 ) ;
#69 = EDGE_CURVE ( 'NONE', #184, #184, #110, .T. ) ;
#70 = CARTESIAN_POINT ( 'NONE',  ( 2.199633243471174140E-13, 2.399615652258963141E-32, 63.00000000000000000 ) ) ;
#71 = DIRECTION ( 'NONE',  ( -3.491481338843133355E-15, 1.224646799147353207E-16, -1.000000000000000000 ) ) ;
#72 = DESIGN_CONTEXT ( 'detailed design', #86, 'design' ) ;
#73 = DIRECTION ( 'NONE',  ( -4.275831445896958607E-31, -1.000000000000000000, -1.224646799147353207E-16 ) ) ;
#74 = AXIS2_PLACEMENT_3D ( 'NONE', #227, #177, #115 ) ;
#75 = FACE_BOUND ( 'NONE', #148, .T. ) ;
#76 = CC_DESIGN_PERSON_AND_ORGANIZATION_ASSIGNMENT ( #62, #162, ( #192 ) ) ;
#77 = DIRECTION ( 'NONE',  ( -4.275831445896958607E-31, -1.000000000000000000, -1.224646799147353207E-16 ) ) ;
#78 = DIRECTION ( 'NONE',  ( 3.491481338843133355E-15, -1.227517819005651059E-16, 1.000000000000000000 ) ) ;
#79 = CIRCLE ( 'NONE', #212, 3.749999999999998668 ) ;
#80 = CARTESIAN_POINT ( 'NONE',  ( 5.586370142149013368E-14, -1.734723475976807094E-15, 16.00000000000000000 ) ) ;
#81 = CC_DESIGN_PERSON_AND_ORGANIZATION_ASSIGNMENT ( #84, #166, ( #18 ) ) ;
#82 = COORDINATED_UNIVERSAL_TIME_OFFSET ( 1, 0, .AHEAD. ) ;
#83 = APPROVAL_ROLE ( '' ) ;
#84 = PERSON_AND_ORGANIZATION ( #226, #134 ) ;
#85 = LOCAL_TIME ( 10, 15, 58.00000000000000000, #106 ) ;
#86 = APPLICATION_CONTEXT ( 'configuration controlled 3d designs of mechanical parts and assemblies' ) ;
#87 = DATE_TIME_ROLE ( 'classification_date' ) ;
#88 = ORIENTED_EDGE ( 'NONE', *, *, #175, .T. ) ;
#89 = APPROVAL_DATE_TIME ( #68, #223 ) ;
#90 = ORIENTED_EDGE ( 'NONE', *, *, #101, .T. ) ;
#91 = DIRECTION ( 'NONE',  ( 4.275831445896958607E-31, 1.000000000000000000, 1.224646799147353207E-16 ) ) ;
#92 = CLOSED_SHELL ( 'NONE', ( #31, #207, #98, #231, #218 ) ) ;
#93 =( GEOMETRIC_REPRESENTATION_CONTEXT ( 3 ) GLOBAL_UNCERTAINTY_ASSIGNED_CONTEXT ( ( #23 ) ) GLOBAL_UNIT_ASSIGNED_CONTEXT ( ( #182, #159, #183 ) ) REPRESENTATION_CONTEXT ( 'NONE', 'WORKASPACE' ) );
#94 = EDGE_CURVE ( 'NONE', #11, #11, #57, .T. ) ;
#95 = DIRECTION ( 'NONE',  ( 0.0000000000000000000, 1.000000000000000000, 0.0000000000000000000 ) ) ;
#96 = FACE_BOUND ( 'NONE', #190, .T. ) ;
#97 = FACE_OUTER_BOUND ( 'NONE', #170, .T. ) ;
#98 = ADVANCED_FACE ( 'NONE', ( #97 ), #41, .F. ) ;
#99 = FACE_OUTER_BOUND ( 'NONE', #17, .T. ) ;
#100 = CALENDAR_DATE ( 2021, 1, 11 ) ;
#101 = EDGE_CURVE ( 'NONE', #217, #217, #208, .T. ) ;
#102 = AXIS2_PLACEMENT_3D ( 'NONE', #174, #4, #116 ) ;
#103 = VERTEX_POINT ( 'NONE', #203 ) ;
#104 = DIRECTION ( 'NONE',  ( 1.000000000000000000, 0.0000000000000000000, 0.0000000000000000000 ) ) ;
#105 = FACE_OUTER_BOUND ( 'NONE', #130, .T. ) ;
#106 = COORDINATED_UNIVERSAL_TIME_OFFSET ( 1, 0, .AHEAD. ) ;
#107 = EDGE_LOOP ( 'NONE', ( #209 ) ) ;
#108 = EDGE_CURVE ( 'NONE', #59, #59, #79, .T. ) ;
#109 = PERSON_AND_ORGANIZATION_ROLE ( 'design_supplier' ) ;
#110 = CIRCLE ( 'NONE', #141, 4.000000000000002665 ) ;
#111 = ORIENTED_EDGE ( 'NONE', *, *, #175, .F. ) ;
#112 = MANIFOLD_SOLID_BREP ( 'Corps-Déplacer/Copier1[1]', #92 ) ;
#113 = CARTESIAN_POINT ( 'NONE',  ( -3.206856022687257342E-31, 1.124813677168791889E-32, -9.184800694795683199E-17 ) ) ;
#114 = DIRECTION ( 'NONE',  ( -3.491481338843133355E-15, 1.227517819005651059E-16, -1.000000000000000000 ) ) ;
#115 = DIRECTION ( 'NONE',  ( -4.365441207277734308E-31, -1.000000000000000000, -1.228762462150238276E-16 ) ) ;
#116 = DIRECTION ( 'NONE',  ( 0.0000000000000000000, -1.000000000000000000, 0.0000000000000000000 ) ) ;
#117 = CC_DESIGN_APPROVAL ( #146, ( #27 ) ) ;
#118 = CARTESIAN_POINT ( 'NONE',  ( 5.586370142149013368E-14, -3.750000000000000888, 16.00000000000000000 ) ) ;
#119 = AXIS2_PLACEMENT_3D ( 'NONE', #197, #135, #228 ) ;
#120 = LOCAL_TIME ( 10, 15, 58.00000000000000000, #47 ) ;
#121 = DIRECTION ( 'NONE',  ( 0.0000000000000000000, 0.0000000000000000000, 1.000000000000000000 ) ) ;
#122 = CONICAL_SURFACE ( 'NONE', #65, 3.200000000000003286, 0.7853981633974510546 ) ;
#123 = EDGE_LOOP ( 'NONE', ( #126 ) ) ;
#124 = PERSON_AND_ORGANIZATION_ROLE ( 'creator' ) ;
#125 = ORIENTED_EDGE ( 'NONE', *, *, #69, .F. ) ;
#126 = ORIENTED_EDGE ( 'NONE', *, *, #48, .T. ) ;
#127 = PERSON_AND_ORGANIZATION_ROLE ( 'classification_officer' ) ;
#128 = EDGE_LOOP ( 'NONE', ( #210 ) ) ;
#129 = APPROVAL_PERSON_ORGANIZATION ( #152, #146, #242 ) ;
#130 = EDGE_LOOP ( 'NONE', ( #15 ) ) ;
#131 = FACE_OUTER_BOUND ( 'NONE', #107, .T. ) ;
#132 = CARTESIAN_POINT ( 'NONE',  ( 2.171701392760429073E-13, -7.617303090696536944E-15, 62.20000000000000284 ) ) ;
#133 = AXIS2_PLACEMENT_3D ( 'NONE', #22, #114, #95 ) ;
#134 = ORGANIZATION ( 'UNSPECIFIED', 'UNSPECIFIED', '' ) ;
#135 = DIRECTION ( 'NONE',  ( 3.491481338843133355E-15, -1.227517819005651059E-16, 1.000000000000000000 ) ) ;
#136 = DIRECTION ( 'NONE',  ( 3.491481338843133355E-15, -1.226656096638776648E-16, 1.000000000000000000 ) ) ;
#137 = ADVANCED_BREP_SHAPE_REPRESENTATION ( '28934', ( #112, #171, #221 ), #93 ) ;
#138 = FACE_OUTER_BOUND ( 'NONE', #123, .T. ) ;
#139 = VERTEX_POINT ( 'NONE', #238 ) ;
#140 = APPLICATION_PROTOCOL_DEFINITION ( 'international standard', 'config_control_design', 1994, #86 ) ;
#141 = AXIS2_PLACEMENT_3D ( 'NONE', #132, #196, #230 ) ;
#142 = EDGE_CURVE ( 'NONE', #103, #103, #52, .T. ) ;
#143 = APPROVAL_STATUS ( 'not_yet_approved' ) ;
#144 = PERSON_AND_ORGANIZATION ( #226, #134 ) ;
#145 = PERSON_AND_ORGANIZATION ( #226, #134 ) ;
#146 = APPROVAL ( #33, 'UNSPECIFIED' ) ;
#147 = PERSON_AND_ORGANIZATION ( #226, #134 ) ;
#148 = EDGE_LOOP ( 'NONE', ( #37 ) ) ;
#149 = CALENDAR_DATE ( 2021, 1, 11 ) ;
#150 = ORIENTED_EDGE ( 'NONE', *, *, #142, .F. ) ;
#151 = CC_DESIGN_PERSON_AND_ORGANIZATION_ASSIGNMENT ( #147, #127, ( #27 ) ) ;
#152 = PERSON_AND_ORGANIZATION ( #226, #134 ) ;
#153 = LOCAL_TIME ( 10, 15, 58.00000000000000000, #82 ) ;
#154 = FACE_OUTER_BOUND ( 'NONE', #66, .T. ) ;
#155 = CARTESIAN_POINT ( 'NONE',  ( -1.520410639060319697E-30, 2.681745977208134205E-32, -4.354629143067658961E-16 ) ) ;
#156 = CC_DESIGN_APPROVAL ( #223, ( #10 ) ) ;
#157 = CARTESIAN_POINT ( 'NONE',  ( 2.199633243471174140E-13, -7.715274834628325378E-15, 63.00000000000000000 ) ) ;
#158 = DIRECTION ( 'NONE',  ( 3.491481338843133355E-15, -1.224646799147353207E-16, 1.000000000000000000 ) ) ;
#159 =( NAMED_UNIT ( * ) PLANE_ANGLE_UNIT ( ) SI_UNIT ( $, .RADIAN. ) );
#160 = AXIS2_PLACEMENT_3D ( 'NONE', #113, #178, #73 ) ;
#161 = CC_DESIGN_SECURITY_CLASSIFICATION ( #27, ( #10 ) ) ;
#162 = PERSON_AND_ORGANIZATION_ROLE ( 'design_owner' ) ;
#163 = DIRECTION ( 'NONE',  ( -4.275831445896958607E-31, -1.000000000000000000, -1.224646799147353207E-16 ) ) ;
#164 = CC_DESIGN_PERSON_AND_ORGANIZATION_ASSIGNMENT ( #145, #124, ( #10 ) ) ;
#165 = APPROVAL_DATE_TIME ( #12, #60 ) ;
#166 = PERSON_AND_ORGANIZATION_ROLE ( 'creator' ) ;
#167 = CALENDAR_DATE ( 2021, 1, 11 ) ;
#168 = ORIENTED_EDGE ( 'NONE', *, *, #101, .F. ) ;
#169 = CALENDAR_DATE ( 2021, 1, 11 ) ;
#170 = EDGE_LOOP ( 'NONE', ( #150 ) ) ;
#171 = MANIFOLD_SOLID_BREP ( 'Corps-Déplacer/Copier1[2]', #5 ) ;
#172 = APPROVAL_STATUS ( 'not_yet_approved' ) ;
#173 = AXIS2_PLACEMENT_3D ( 'NONE', #232, #25, #91 ) ;
#174 = CARTESIAN_POINT ( 'NONE',  ( 5.586370142149013368E-14, -1.964028510409041694E-15, 16.00000000000000000 ) ) ;
#175 = EDGE_CURVE ( 'NONE', #204, #204, #241, .T. ) ;
#176 = CARTESIAN_POINT ( 'NONE',  ( 5.586370142149013368E-14, -1.964028510409041694E-15, 16.00000000000000000 ) ) ;
#177 = DIRECTION ( 'NONE',  ( 3.491481338843133355E-15, -1.226656096638776648E-16, 1.000000000000000000 ) ) ;
#178 = DIRECTION ( 'NONE',  ( 3.491481338843133355E-15, -1.224646799147353207E-16, 1.000000000000000000 ) ) ;
#179 = AXIS2_PLACEMENT_3D ( 'NONE', #193, #71, #53 ) ;
#180 = PLANE ( 'NONE',  #235 ) ;
#181 = CARTESIAN_POINT ( 'NONE',  ( 5.586370142149013368E-14, 2.999519565323710837E-32, 16.00000000000000000 ) ) ;
#182 =( LENGTH_UNIT ( ) NAMED_UNIT ( * ) SI_UNIT ( .MILLI., .METRE. ) );
#183 =( NAMED_UNIT ( * ) SI_UNIT ( $, .STERADIAN. ) SOLID_ANGLE_UNIT ( ) );
#184 = VERTEX_POINT ( 'NONE', #8 ) ;
#185 = LOCAL_TIME ( 10, 15, 58.00000000000000000, #64 ) ;
#186 = APPROVAL_DATE_TIME ( #187, #146 ) ;
#187 = DATE_AND_TIME ( #149, #185 ) ;
#188 = SECURITY_CLASSIFICATION_LEVEL ( 'unclassified' ) ;
#189 = APPROVAL_PERSON_ORGANIZATION ( #219, #60, #83 ) ;
#190 = EDGE_LOOP ( 'NONE', ( #90 ) ) ;
#191 = PRODUCT_RELATED_PRODUCT_CATEGORY ( 'detail', '', ( #192 ) ) ;
#192 = PRODUCT ( '28934', '28934', '', ( #236 ) ) ;
#193 = CARTESIAN_POINT ( 'NONE',  ( 2.199633243471174140E-13, -7.715274834628325378E-15, 63.00000000000000000 ) ) ;
#194 = ADVANCED_FACE ( 'NONE', ( #199, #138 ), #3, .T. ) ;
#195 = AXIS2_PLACEMENT_3D ( 'NONE', #155, #136, #214 ) ;
#196 = DIRECTION ( 'NONE',  ( -3.491481338843133355E-15, 1.224646799147353207E-16, -1.000000000000000000 ) ) ;
#197 = CARTESIAN_POINT ( 'NONE',  ( -6.413731847436034514E-31, 0.0000000000000000000, -1.836965810494968570E-16 ) ) ;
#198 = DIRECTION ( 'NONE',  ( 0.0000000000000000000, -1.000000000000000000, 0.0000000000000000000 ) ) ;
#199 = FACE_OUTER_BOUND ( 'NONE', #128, .T. ) ;
#200 = CONICAL_SURFACE ( 'NONE', #74, 3.750000000000000000, 0.7853981633974441712 ) ;
#201 = CARTESIAN_POINT ( 'NONE',  ( -3.040821278120639394E-30, -3.550000000000001599, -8.709258286135317921E-16 ) ) ;
#202 = ADVANCED_FACE ( 'NONE', ( #96, #50 ), #200, .T. ) ;
#203 = CARTESIAN_POINT ( 'NONE',  ( 2.199633243471174140E-13, 3.199999999999995293, 63.00000000000000000 ) ) ;
#204 = VERTEX_POINT ( 'NONE', #29 ) ;
#205 = EDGE_LOOP ( 'NONE', ( #125 ) ) ;
#206 = EDGE_LOOP ( 'NONE', ( #88 ) ) ;
#207 = ADVANCED_FACE ( 'NONE', ( #216, #75 ), #122, .T. ) ;
#208 = CIRCLE ( 'NONE', #195, 3.550000000000001599 ) ;
#209 = ORIENTED_EDGE ( 'NONE', *, *, #69, .T. ) ;
#210 = ORIENTED_EDGE ( 'NONE', *, *, #94, .F. ) ;
#211 = CYLINDRICAL_SURFACE ( 'NONE', #173, 4.000000000000000000 ) ;
#212 = AXIS2_PLACEMENT_3D ( 'NONE', #176, #215, #198 ) ;
#213 = DIRECTION ( 'NONE',  ( 3.491481338843133355E-15, -1.226656096638776648E-16, 1.000000000000000000 ) ) ;
#214 = DIRECTION ( 'NONE',  ( -4.282846870592448247E-31, -1.000000000000000000, -1.226656096638776648E-16 ) ) ;
#215 = DIRECTION ( 'NONE',  ( 3.491481338843133355E-15, -1.227517819005651059E-16, 1.000000000000000000 ) ) ;
#216 = FACE_OUTER_BOUND ( 'NONE', #205, .T. ) ;
#217 = VERTEX_POINT ( 'NONE', #201 ) ;
#218 = ADVANCED_FACE ( 'NONE', ( #99 ), #180, .F. ) ;
#219 = PERSON_AND_ORGANIZATION ( #226, #134 ) ;
#220 = APPLICATION_CONTEXT ( 'configuration controlled 3d designs of mechanical parts and assemblies' ) ;
#221 = AXIS2_PLACEMENT_3D ( 'NONE', #44, #121, #104 ) ;
#222 = DIRECTION ( 'NONE',  ( -4.393421307637210610E-31, -1.000000000000000000, -1.227517819005651059E-16 ) ) ;
#223 = APPROVAL ( #172, 'UNSPECIFIED' ) ;
#224 = AXIS2_PLACEMENT_3D ( 'NONE', #70, #54, #2 ) ;
#225 = ORIENTED_EDGE ( 'NONE', *, *, #48, .F. ) ;
#226 = PERSON ( 'UNSPECIFIED', 'UNSPECIFIED', 'UNSPECIFIED', ('UNSPECIFIED'), ('UNSPECIFIED'), ('UNSPECIFIED') ) ;
#227 = CARTESIAN_POINT ( 'NONE',  ( 6.982962677686251919E-16, -2.453312193277550707E-17, 0.1999999999999995670 ) ) ;
#228 = DIRECTION ( 'NONE',  ( -4.285855558155653280E-31, -1.000000000000000000, -1.227517819005650812E-16 ) ) ;
#229 = LOCAL_TIME ( 10, 15, 58.00000000000000000, #240 ) ;
#230 = DIRECTION ( 'NONE',  ( 0.0000000000000000000, 1.000000000000000000, 0.0000000000000000000 ) ) ;
#231 = ADVANCED_FACE ( 'NONE', ( #233, #56 ), #35, .F. ) ;
#232 = CARTESIAN_POINT ( 'NONE',  ( 0.0000000000000000000, 0.0000000000000000000, 0.0000000000000000000 ) ) ;
#233 = FACE_OUTER_BOUND ( 'NONE', #1, .T. ) ;
#234 = ADVANCED_FACE ( 'NONE', ( #105 ), #237, .T. ) ;
#235 = AXIS2_PLACEMENT_3D ( 'NONE', #7, #158, #77 ) ;
#236 = MECHANICAL_CONTEXT ( 'NONE', #220, 'mechanical' ) ;
#237 = PLANE ( 'NONE',  #39 ) ;
#238 = CARTESIAN_POINT ( 'NONE',  ( 6.982962677686236142E-16, -3.750000000000000000, 0.1999999999999991229 ) ) ;
#239 = AXIS2_PLACEMENT_3D ( 'NONE', #6, #213, #19 ) ;
#240 = COORDINATED_UNIVERSAL_TIME_OFFSET ( 1, 0, .AHEAD. ) ;
#241 = CIRCLE ( 'NONE', #133, 4.000000000000000000 ) ;
#242 = APPROVAL_ROLE ( '' ) ;
#243 = ORIENTED_EDGE ( 'NONE', *, *, #108, .F. ) ;
ENDSEC;
END-ISO-10303-21;
