ISO-10303-21;
HEADER;
FILE_DESCRIPTION (( 'STEP AP203' ),
    '1' );
FILE_NAME ('28933.step',
    '2021-11-01T09:15:58',
    ( '' ),
    ( '' ),
    'SwSTEP 2.0',
    'SolidWorks 2019',
    '' );
FILE_SCHEMA (( 'CONFIG_CONTROL_DESIGN' ));
ENDSEC;

DATA;
#1 = APPLICATION_PROTOCOL_DEFINITION ( 'international standard', 'config_control_design', 1994, #112 ) ;
#2 = CIRCLE ( 'NONE', #203, 3.500000000000000000 ) ;
#3 = CC_DESIGN_APPROVAL ( #17, ( #208 ) ) ;
#4 = EDGE_LOOP ( 'NONE', ( #117 ) ) ;
#5 = CARTESIAN_POINT ( 'NONE',  ( 4.538925740496072731E-14, -1.595773164707346130E-15, 12.99999999999999822 ) ) ;
#6 = PLANE ( 'NONE',  #179 ) ;
#7 = PERSON ( 'UNSPECIFIED', 'UNSPECIFIED', 'UNSPECIFIED', ('UNSPECIFIED'), ('UNSPECIFIED'), ('UNSPECIFIED') ) ;
#8 = DIRECTION ( 'NONE',  ( -3.491481338843133355E-15, 1.224646799147353207E-16, -1.000000000000000000 ) ) ;
#9 = EDGE_CURVE ( 'NONE', #29, #29, #14, .T. ) ;
#10 = FACE_OUTER_BOUND ( 'NONE', #131, .T. ) ;
#11 = PLANE ( 'NONE',  #123 ) ;
#12 = CIRCLE ( 'NONE', #157, 4.000000000000000000 ) ;
#13 = CARTESIAN_POINT ( 'NONE',  ( 0.0000000000000000000, 0.0000000000000000000, 0.0000000000000000000 ) ) ;
#14 = CIRCLE ( 'NONE', #189, 3.200000000000003286 ) ;
#15 = APPROVAL_ROLE ( '' ) ;
#16 = EDGE_LOOP ( 'NONE', ( #224 ) ) ;
#17 = APPROVAL ( #101, 'UNSPECIFIED' ) ;
#18 = PERSON_AND_ORGANIZATION ( #7, #30 ) ;
#19 = VERTEX_POINT ( 'NONE', #96 ) ;
#20 = LOCAL_TIME ( 10, 15, 58.00000000000000000, #134 ) ;
#21 = UNCERTAINTY_MEASURE_WITH_UNIT (LENGTH_MEASURE( 1.000000000000000082E-05 ), #172, 'distance_accuracy_value', 'NONE');
#22 = FACE_OUTER_BOUND ( 'NONE', #213, .T. ) ;
#23 = DIRECTION ( 'NONE',  ( -4.285855558155653280E-31, -1.000000000000000000, -1.227517819005651059E-16 ) ) ;
#24 = CC_DESIGN_PERSON_AND_ORGANIZATION_ASSIGNMENT ( #241, #74, ( #72 ) ) ;
#25 = CARTESIAN_POINT ( 'NONE',  ( 4.538925740496072731E-14, -1.734723475976807094E-15, 12.99999999999999822 ) ) ;
#26 = APPROVAL_ROLE ( '' ) ;
#27 = DIRECTION ( 'NONE',  ( 3.491481338843133355E-15, -1.224646799147353207E-16, 1.000000000000000000 ) ) ;
#28 = EDGE_CURVE ( 'NONE', #166, #166, #88, .T. ) ;
#29 = VERTEX_POINT ( 'NONE', #70 ) ;
#30 = ORGANIZATION ( 'UNSPECIFIED', 'UNSPECIFIED', '' ) ;
#31 = AXIS2_PLACEMENT_3D ( 'NONE', #5, #219, #47 ) ;
#32 = DIRECTION ( 'NONE',  ( 4.275831445896958607E-31, 1.000000000000000000, 1.224646799147353207E-16 ) ) ;
#33 = CC_DESIGN_SECURITY_CLASSIFICATION ( #208, ( #72 ) ) ;
#34 = PERSON_AND_ORGANIZATION ( #7, #30 ) ;
#35 = ORIENTED_EDGE ( 'NONE', *, *, #51, .T. ) ;
#36 = DATE_AND_TIME ( #38, #20 ) ;
#37 = EDGE_LOOP ( 'NONE', ( #59 ) ) ;
#38 = CALENDAR_DATE ( 2021, 1, 11 ) ;
#39 = AXIS2_PLACEMENT_3D ( 'NONE', #180, #142, #194 ) ;
#40 = EDGE_LOOP ( 'NONE', ( #78 ) ) ;
#41 = CALENDAR_DATE ( 2021, 1, 11 ) ;
#42 = DIRECTION ( 'NONE',  ( -3.491481338843133355E-15, 1.224646799147353207E-16, -1.000000000000000000 ) ) ;
#43 = CALENDAR_DATE ( 2021, 1, 11 ) ;
#44 = DIRECTION ( 'NONE',  ( 3.491481338843133355E-15, -1.224646799147353207E-16, 1.000000000000000000 ) ) ;
#45 = ADVANCED_FACE ( 'NONE', ( #149 ), #120, .T. ) ;
#46 = DIRECTION ( 'NONE',  ( 3.491481338843133355E-15, -1.227517819005651059E-16, 1.000000000000000000 ) ) ;
#47 = DIRECTION ( 'NONE',  ( 0.0000000000000000000, -1.000000000000000000, 0.0000000000000000000 ) ) ;
#48 = CIRCLE ( 'NONE', #183, 3.499999999999997780 ) ;
#49 = ADVANCED_FACE ( 'NONE', ( #162, #232 ), #174, .T. ) ;
#50 = VERTEX_POINT ( 'NONE', #130 ) ;
#51 = EDGE_CURVE ( 'NONE', #108, #108, #12, .T. ) ;
#52 = DIRECTION ( 'NONE',  ( 0.0000000000000000000, -1.000000000000000000, 0.0000000000000000000 ) ) ;
#53 = LOCAL_TIME ( 10, 15, 58.00000000000000000, #153 ) ;
#54 = EDGE_CURVE ( 'NONE', #237, #237, #2, .T. ) ;
#55 = CARTESIAN_POINT ( 'NONE',  ( 0.0000000000000000000, 0.0000000000000000000, 0.0000000000000000000 ) ) ;
#56 = APPLICATION_PROTOCOL_DEFINITION ( 'international standard', 'config_control_design', 1994, #239 ) ;
#57 = APPROVAL_STATUS ( 'not_yet_approved' ) ;
#58 = CIRCLE ( 'NONE', #135, 4.000000000000002665 ) ;
#59 = ORIENTED_EDGE ( 'NONE', *, *, #28, .F. ) ;
#60 = MECHANICAL_CONTEXT ( 'NONE', #112, 'mechanical' ) ;
#61 = EDGE_LOOP ( 'NONE', ( #210 ) ) ;
#62 = FACE_OUTER_BOUND ( 'NONE', #61, .T. ) ;
#63 = CARTESIAN_POINT ( 'NONE',  ( -3.206856022687257342E-31, 1.124813677168791889E-32, -9.184800694795683199E-17 ) ) ;
#64 = CLOSED_SHELL ( 'NONE', ( #240, #154, #79, #184, #185 ) ) ;
#65 = DIRECTION ( 'NONE',  ( -3.491481338843133355E-15, 1.227517819005651059E-16, -1.000000000000000000 ) ) ;
#66 = CARTESIAN_POINT ( 'NONE',  ( -1.413339467295508710E-30, 2.305574682352864863E-32, -4.047965118907965230E-16 ) ) ;
#67 = PERSON_AND_ORGANIZATION ( #7, #30 ) ;
#68 = DIRECTION ( 'NONE',  ( -3.491481338843133355E-15, 1.224646799147353207E-16, -1.000000000000000000 ) ) ;
#69 = CARTESIAN_POINT ( 'NONE',  ( 6.982962677686238114E-16, -3.500000000000000000, 0.1999999999999991784 ) ) ;
#70 = CARTESIAN_POINT ( 'NONE',  ( 2.199633243471174140E-13, 3.199999999999995293, 63.00000000000000000 ) ) ;
#71 = CC_DESIGN_PERSON_AND_ORGANIZATION_ASSIGNMENT ( #209, #158, ( #128 ) ) ;
#72 = PRODUCT_DEFINITION_FORMATION_WITH_SPECIFIED_SOURCE ( 'ANY', '', #86, .NOT_KNOWN. ) ;
#73 = PRODUCT_DEFINITION_SHAPE ( 'NONE', 'NONE',  #128 ) ;
#74 = PERSON_AND_ORGANIZATION_ROLE ( 'design_supplier' ) ;
#75 = DIRECTION ( 'NONE',  ( 1.000000000000000000, 0.0000000000000000000, 0.0000000000000000000 ) ) ;
#76 = EDGE_LOOP ( 'NONE', ( #97 ) ) ;
#77 = CALENDAR_DATE ( 2021, 1, 11 ) ;
#78 = ORIENTED_EDGE ( 'NONE', *, *, #106, .T. ) ;
#79 = ADVANCED_FACE ( 'NONE', ( #231 ), #125, .F. ) ;
#80 = AXIS2_PLACEMENT_3D ( 'NONE', #13, #109, #32 ) ;
#81 = EDGE_LOOP ( 'NONE', ( #187 ) ) ;
#82 = DESIGN_CONTEXT ( 'detailed design', #239, 'design' ) ;
#83 = CARTESIAN_POINT ( 'NONE',  ( 4.538925740496073362E-14, 2.999519565323710837E-32, 13.00000000000000000 ) ) ;
#84 = DIRECTION ( 'NONE',  ( 3.491481338843133355E-15, -1.226656096638776648E-16, 1.000000000000000000 ) ) ;
#85 = CARTESIAN_POINT ( 'NONE',  ( 5.510913009090916710E-14, -2.076449974346732503E-15, 15.78388218141501476 ) ) ;
#86 = PRODUCT ( '28933', '28933', '', ( #60 ) ) ;
#87 = DIRECTION ( 'NONE',  ( 3.491481338843133355E-15, -1.227517819005651059E-16, 1.000000000000000000 ) ) ;
#88 = CIRCLE ( 'NONE', #238, 3.300000000000001599 ) ;
#89 = APPROVAL_PERSON_ORGANIZATION ( #67, #17, #26 ) ;
#90 = CARTESIAN_POINT ( 'NONE',  ( 5.510913009090916710E-14, 3.999999999999998224, 15.78388218141501476 ) ) ;
#91 = CIRCLE ( 'NONE', #31, 3.499999999999997780 ) ;
#92 = APPROVAL_DATE_TIME ( #36, #159 ) ;
#93 = ORIENTED_EDGE ( 'NONE', *, *, #106, .F. ) ;
#94 = LOCAL_TIME ( 10, 15, 58.00000000000000000, #190 ) ;
#95 = CALENDAR_DATE ( 2021, 1, 11 ) ;
#96 = CARTESIAN_POINT ( 'NONE',  ( 4.538925740496072731E-14, -3.499999999999999556, 12.99999999999999822 ) ) ;
#97 = ORIENTED_EDGE ( 'NONE', *, *, #54, .F. ) ;
#98 = ORIENTED_EDGE ( 'NONE', *, *, #234, .T. ) ;
#99 = AXIS2_PLACEMENT_3D ( 'NONE', #55, #151, #75 ) ;
#100 = DIRECTION ( 'NONE',  ( -4.282846870592448247E-31, -1.000000000000000000, -1.226656096638776648E-16 ) ) ;
#101 = APPROVAL_STATUS ( 'not_yet_approved' ) ;
#102 = DIRECTION ( 'NONE',  ( -4.275831445896958607E-31, -1.000000000000000000, -1.224646799147353207E-16 ) ) ;
#103 = CARTESIAN_POINT ( 'NONE',  ( 2.171701392760429073E-13, -7.617303090696536944E-15, 62.20000000000000284 ) ) ;
#104 = TOROIDAL_SURFACE ( 'NONE', #227, 11.49999999999999822, 8.000000000000000000 ) ;
#105 = CARTESIAN_POINT ( 'NONE',  ( 4.538925740496073362E-14, 2.999519565323710837E-32, 13.00000000000000000 ) ) ;
#106 = EDGE_CURVE ( 'NONE', #50, #50, #58, .T. ) ;
#107 = DIRECTION ( 'NONE',  ( -4.340327956931570986E-31, -1.000000000000000000, -1.227517819005651059E-16 ) ) ;
#108 = VERTEX_POINT ( 'NONE', #90 ) ;
#109 = DIRECTION ( 'NONE',  ( -3.491481338843133355E-15, 1.224646799147353207E-16, -1.000000000000000000 ) ) ;
#110 = CYLINDRICAL_SURFACE ( 'NONE', #80, 4.000000000000000000 ) ;
#111 = AXIS2_PLACEMENT_3D ( 'NONE', #144, #221, #217 ) ;
#112 = APPLICATION_CONTEXT ( 'configuration controlled 3d designs of mechanical parts and assemblies' ) ;
#113 = EDGE_LOOP ( 'NONE', ( #156 ) ) ;
#114 = PERSON_AND_ORGANIZATION ( #7, #30 ) ;
#115 = EDGE_LOOP ( 'NONE', ( #93 ) ) ;
#116 = ADVANCED_FACE ( 'NONE', ( #201 ), #6, .F. ) ;
#117 = ORIENTED_EDGE ( 'NONE', *, *, #51, .F. ) ;
#118 = VERTEX_POINT ( 'NONE', #155 ) ;
#119 = APPROVAL_STATUS ( 'not_yet_approved' ) ;
#120 = PLANE ( 'NONE',  #192 ) ;
#121 = CARTESIAN_POINT ( 'NONE',  ( -6.413731847436034514E-31, 0.0000000000000000000, -1.836965810494968570E-16 ) ) ;
#122 = CARTESIAN_POINT ( 'NONE',  ( 2.199633243471174140E-13, -7.715274834628325378E-15, 63.00000000000000000 ) ) ;
#123 = AXIS2_PLACEMENT_3D ( 'NONE', #105, #44, #160 ) ;
#124 = CC_DESIGN_APPROVAL ( #159, ( #72 ) ) ;
#125 = PLANE ( 'NONE',  #111 ) ;
#126 = MANIFOLD_SOLID_BREP ( 'Corps-Déplacer/Copier1[1]', #64 ) ;
#127 = LOCAL_TIME ( 10, 15, 58.00000000000000000, #243 ) ;
#128 = PRODUCT_DEFINITION ( 'UNKNOWN', '', #72, #82 ) ;
#129 = CC_DESIGN_APPROVAL ( #214, ( #128 ) ) ;
#130 = CARTESIAN_POINT ( 'NONE',  ( 2.171701392760429073E-13, 3.999999999999994671, 62.20000000000000284 ) ) ;
#131 = EDGE_LOOP ( 'NONE', ( #212 ) ) ;
#132 = DATE_AND_TIME ( #95, #53 ) ;
#133 = EDGE_LOOP ( 'NONE', ( #35 ) ) ;
#134 = COORDINATED_UNIVERSAL_TIME_OFFSET ( 1, 0, .AHEAD. ) ;
#135 = AXIS2_PLACEMENT_3D ( 'NONE', #103, #8, #178 ) ;
#136 = DATE_AND_TIME ( #41, #94 ) ;
#137 =( NAMED_UNIT ( * ) SI_UNIT ( $, .STERADIAN. ) SOLID_ANGLE_UNIT ( ) );
#138 = CC_DESIGN_DATE_AND_TIME_ASSIGNMENT ( #218, #193, ( #208 ) ) ;
#139 = EDGE_LOOP ( 'NONE', ( #242 ) ) ;
#140 = CYLINDRICAL_SURFACE ( 'NONE', #152, 3.499999999999997780 ) ;
#141 = CLOSED_SHELL ( 'NONE', ( #195, #45, #49, #116 ) ) ;
#142 = DIRECTION ( 'NONE',  ( 3.491481338843133355E-15, -1.226656096638776648E-16, 1.000000000000000000 ) ) ;
#143 = DATE_AND_TIME ( #43, #199 ) ;
#144 = CARTESIAN_POINT ( 'NONE',  ( 2.199633243471174140E-13, 2.399615652258963141E-32, 63.00000000000000000 ) ) ;
#145 = CC_DESIGN_PERSON_AND_ORGANIZATION_ASSIGNMENT ( #114, #169, ( #72 ) ) ;
#146 = COORDINATED_UNIVERSAL_TIME_OFFSET ( 1, 0, .AHEAD. ) ;
#147 = DIRECTION ( 'NONE',  ( -4.402125587170824932E-31, -1.000000000000000000, -1.239088197126290817E-16 ) ) ;
#148 = SHAPE_DEFINITION_REPRESENTATION ( #73, #228 ) ;
#149 = FACE_OUTER_BOUND ( 'NONE', #173, .T. ) ;
#150 =( GEOMETRIC_REPRESENTATION_CONTEXT ( 3 ) GLOBAL_UNCERTAINTY_ASSIGNED_CONTEXT ( ( #21 ) ) GLOBAL_UNIT_ASSIGNED_CONTEXT ( ( #172, #186, #137 ) ) REPRESENTATION_CONTEXT ( 'NONE', 'WORKASPACE' ) );
#151 = DIRECTION ( 'NONE',  ( 0.0000000000000000000, 0.0000000000000000000, 1.000000000000000000 ) ) ;
#152 = AXIS2_PLACEMENT_3D ( 'NONE', #121, #46, #23 ) ;
#153 = COORDINATED_UNIVERSAL_TIME_OFFSET ( 1, 0, .AHEAD. ) ;
#154 = ADVANCED_FACE ( 'NONE', ( #196, #164 ), #207, .T. ) ;
#155 = CARTESIAN_POINT ( 'NONE',  ( 4.538925740496072731E-14, -3.499999999999999556, 12.99999999999999822 ) ) ;
#156 = ORIENTED_EDGE ( 'NONE', *, *, #28, .T. ) ;
#157 = AXIS2_PLACEMENT_3D ( 'NONE', #85, #65, #222 ) ;
#158 = PERSON_AND_ORGANIZATION_ROLE ( 'creator' ) ;
#159 = APPROVAL ( #119, 'UNSPECIFIED' ) ;
#160 = DIRECTION ( 'NONE',  ( -4.275831445896958607E-31, -1.000000000000000000, -1.224646799147353207E-16 ) ) ;
#161 = APPROVAL_DATE_TIME ( #143, #17 ) ;
#162 = FACE_BOUND ( 'NONE', #113, .T. ) ;
#163 = EDGE_CURVE ( 'NONE', #19, #19, #91, .T. ) ;
#164 = FACE_BOUND ( 'NONE', #16, .T. ) ;
#165 = DIRECTION ( 'NONE',  ( 3.491481338843133355E-15, -1.226656096638776648E-16, 1.000000000000000000 ) ) ;
#166 = VERTEX_POINT ( 'NONE', #236 ) ;
#167 = DIRECTION ( 'NONE',  ( 3.491481338843133355E-15, -1.227517819005651059E-16, 1.000000000000000000 ) ) ;
#168 = CC_DESIGN_PERSON_AND_ORGANIZATION_ASSIGNMENT ( #18, #171, ( #208 ) ) ;
#169 = PERSON_AND_ORGANIZATION_ROLE ( 'creator' ) ;
#170 = APPROVAL_PERSON_ORGANIZATION ( #34, #214, #225 ) ;
#171 = PERSON_AND_ORGANIZATION_ROLE ( 'classification_officer' ) ;
#172 =( LENGTH_UNIT ( ) NAMED_UNIT ( * ) SI_UNIT ( .MILLI., .METRE. ) );
#173 = EDGE_LOOP ( 'NONE', ( #98 ) ) ;
#174 = CONICAL_SURFACE ( 'NONE', #39, 3.500000000000000000, 0.7853981633974441712 ) ;
#175 = ORIENTED_EDGE ( 'NONE', *, *, #163, .F. ) ;
#176 = DIRECTION ( 'NONE',  ( 0.0000000000000000000, 1.000000000000000000, 0.0000000000000000000 ) ) ;
#177 = CC_DESIGN_PERSON_AND_ORGANIZATION_ASSIGNMENT ( #215, #226, ( #86 ) ) ;
#178 = DIRECTION ( 'NONE',  ( 0.0000000000000000000, 1.000000000000000000, 0.0000000000000000000 ) ) ;
#179 = AXIS2_PLACEMENT_3D ( 'NONE', #63, #27, #220 ) ;
#180 = CARTESIAN_POINT ( 'NONE',  ( 6.982962677686252905E-16, -2.453312193277551015E-17, 0.1999999999999995948 ) ) ;
#181 = CARTESIAN_POINT ( 'NONE',  ( 2.199633243471174140E-13, -7.715274834628325378E-15, 63.00000000000000000 ) ) ;
#182 = CARTESIAN_POINT ( 'NONE',  ( 6.982962677686252905E-16, -2.453312193277551015E-17, 0.1999999999999995948 ) ) ;
#183 = AXIS2_PLACEMENT_3D ( 'NONE', #197, #167, #52 ) ;
#184 = ADVANCED_FACE ( 'NONE', ( #10, #200 ), #104, .F. ) ;
#185 = ADVANCED_FACE ( 'NONE', ( #22 ), #11, .F. ) ;
#186 =( NAMED_UNIT ( * ) PLANE_ANGLE_UNIT ( ) SI_UNIT ( $, .RADIAN. ) );
#187 = ORIENTED_EDGE ( 'NONE', *, *, #234, .F. ) ;
#188 = APPROVAL_DATE_TIME ( #136, #214 ) ;
#189 = AXIS2_PLACEMENT_3D ( 'NONE', #181, #42, #233 ) ;
#190 = COORDINATED_UNIVERSAL_TIME_OFFSET ( 1, 0, .AHEAD. ) ;
#191 = PRODUCT_RELATED_PRODUCT_CATEGORY ( 'detail', '', ( #86 ) ) ;
#192 = AXIS2_PLACEMENT_3D ( 'NONE', #83, #235, #102 ) ;
#193 = DATE_TIME_ROLE ( 'classification_date' ) ;
#194 = DIRECTION ( 'NONE',  ( -4.402125587170824932E-31, -1.000000000000000000, -1.239088197126290817E-16 ) ) ;
#195 = ADVANCED_FACE ( 'NONE', ( #230, #62 ), #140, .T. ) ;
#196 = FACE_OUTER_BOUND ( 'NONE', #115, .T. ) ;
#197 = CARTESIAN_POINT ( 'NONE',  ( 4.538925740496072731E-14, -1.595773164707346130E-15, 12.99999999999999822 ) ) ;
#198 = AXIS2_PLACEMENT_3D ( 'NONE', #122, #68, #176 ) ;
#199 = LOCAL_TIME ( 10, 15, 58.00000000000000000, #146 ) ;
#200 = FACE_OUTER_BOUND ( 'NONE', #133, .T. ) ;
#201 = FACE_OUTER_BOUND ( 'NONE', #37, .T. ) ;
#202 = CC_DESIGN_DATE_AND_TIME_ASSIGNMENT ( #132, #216, ( #128 ) ) ;
#203 = AXIS2_PLACEMENT_3D ( 'NONE', #182, #84, #147 ) ;
#204 = FACE_OUTER_BOUND ( 'NONE', #40, .T. ) ;
#205 = MANIFOLD_SOLID_BREP ( 'Corps-Déplacer/Copier1[2]', #141 ) ;
#206 = FACE_OUTER_BOUND ( 'NONE', #4, .T. ) ;
#207 = CONICAL_SURFACE ( 'NONE', #198, 3.200000000000003286, 0.7853981633974510546 ) ;
#208 = SECURITY_CLASSIFICATION ( '', '', #223 ) ;
#209 = PERSON_AND_ORGANIZATION ( #7, #30 ) ;
#210 = ORIENTED_EDGE ( 'NONE', *, *, #54, .T. ) ;
#211 = PERSON_AND_ORGANIZATION ( #7, #30 ) ;
#212 = ORIENTED_EDGE ( 'NONE', *, *, #163, .T. ) ;
#213 = EDGE_LOOP ( 'NONE', ( #175 ) ) ;
#214 = APPROVAL ( #57, 'UNSPECIFIED' ) ;
#215 = PERSON_AND_ORGANIZATION ( #7, #30 ) ;
#216 = DATE_TIME_ROLE ( 'creation_date' ) ;
#217 = DIRECTION ( 'NONE',  ( 4.275831445896958607E-31, 1.000000000000000000, 1.224646799147353207E-16 ) ) ;
#218 = DATE_AND_TIME ( #77, #127 ) ;
#219 = DIRECTION ( 'NONE',  ( 3.491481338843133355E-15, -1.227517819005651059E-16, 1.000000000000000000 ) ) ;
#220 = DIRECTION ( 'NONE',  ( -4.275831445896958607E-31, -1.000000000000000000, -1.224646799147353207E-16 ) ) ;
#221 = DIRECTION ( 'NONE',  ( -3.491481338843133355E-15, 1.224646799147353207E-16, -1.000000000000000000 ) ) ;
#222 = DIRECTION ( 'NONE',  ( 0.0000000000000000000, 1.000000000000000000, 0.0000000000000000000 ) ) ;
#223 = SECURITY_CLASSIFICATION_LEVEL ( 'unclassified' ) ;
#224 = ORIENTED_EDGE ( 'NONE', *, *, #9, .T. ) ;
#225 = APPROVAL_ROLE ( '' ) ;
#226 = PERSON_AND_ORGANIZATION_ROLE ( 'design_owner' ) ;
#227 = AXIS2_PLACEMENT_3D ( 'NONE', #25, #87, #107 ) ;
#228 = ADVANCED_BREP_SHAPE_REPRESENTATION ( '28933', ( #126, #205, #99 ), #150 ) ;
#229 = APPROVAL_PERSON_ORGANIZATION ( #211, #159, #15 ) ;
#230 = FACE_OUTER_BOUND ( 'NONE', #81, .T. ) ;
#231 = FACE_OUTER_BOUND ( 'NONE', #139, .T. ) ;
#232 = FACE_OUTER_BOUND ( 'NONE', #76, .T. ) ;
#233 = DIRECTION ( 'NONE',  ( 0.0000000000000000000, 1.000000000000000000, 0.0000000000000000000 ) ) ;
#234 = EDGE_CURVE ( 'NONE', #118, #118, #48, .T. ) ;
#235 = DIRECTION ( 'NONE',  ( 3.491481338843133355E-15, -1.224646799147353207E-16, 1.000000000000000000 ) ) ;
#236 = CARTESIAN_POINT ( 'NONE',  ( -2.826678934591017419E-30, -3.300000000000001599, -8.095930237815930460E-16 ) ) ;
#237 = VERTEX_POINT ( 'NONE', #69 ) ;
#238 = AXIS2_PLACEMENT_3D ( 'NONE', #66, #165, #100 ) ;
#239 = APPLICATION_CONTEXT ( 'configuration controlled 3d designs of mechanical parts and assemblies' ) ;
#240 = ADVANCED_FACE ( 'NONE', ( #204, #206 ), #110, .T. ) ;
#241 = PERSON_AND_ORGANIZATION ( #7, #30 ) ;
#242 = ORIENTED_EDGE ( 'NONE', *, *, #9, .F. ) ;
#243 = COORDINATED_UNIVERSAL_TIME_OFFSET ( 1, 0, .AHEAD. ) ;
ENDSEC;
END-ISO-10303-21;
