ISO-10303-21;
HEADER;
FILE_DESCRIPTION (( 'STEP AP203' ),
    '1' );
FILE_NAME ('28932.step',
    '2021-11-01T09:15:57',
    ( '' ),
    ( '' ),
    'SwSTEP 2.0',
    'SolidWorks 2019',
    '' );
FILE_SCHEMA (( 'CONFIG_CONTROL_DESIGN' ));
ENDSEC;

DATA;
#1 = VERTEX_POINT ( 'NONE', #133 ) ;
#2 = ADVANCED_FACE ( 'NONE', ( #62, #137 ), #237, .T. ) ;
#3 = PERSON_AND_ORGANIZATION ( #60, #35 ) ;
#4 = CIRCLE ( 'NONE', #78, 3.249999999999999556 ) ;
#5 = VERTEX_POINT ( 'NONE', #223 ) ;
#6 = APPROVAL ( #79, 'UNSPECIFIED' ) ;
#7 = EDGE_LOOP ( 'NONE', ( #41 ) ) ;
#8 = ADVANCED_BREP_SHAPE_REPRESENTATION ( '28932', ( #111, #29, #87 ), #219 ) ;
#9 = ORIENTED_EDGE ( 'NONE', *, *, #235, .F. ) ;
#10 = PLANE ( 'NONE',  #196 ) ;
#11 = PRODUCT ( '28932', '28932', '', ( #130 ) ) ;
#12 = DIRECTION ( 'NONE',  ( -4.275831445896958607E-31, -1.000000000000000000, -1.224646799147353207E-16 ) ) ;
#13 = CARTESIAN_POINT ( 'NONE',  ( 4.538925740496073362E-14, 2.999519565323710837E-32, 13.00000000000000000 ) ) ;
#14 = CIRCLE ( 'NONE', #21, 3.200000000000003286 ) ;
#15 = FACE_OUTER_BOUND ( 'NONE', #7, .T. ) ;
#16 = DIRECTION ( 'NONE',  ( -4.148156803295585723E-31, -1.000000000000000000, -1.251002506714043786E-16 ) ) ;
#17 = APPLICATION_PROTOCOL_DEFINITION ( 'international standard', 'config_control_design', 1994, #186 ) ;
#18 = CARTESIAN_POINT ( 'NONE',  ( -2.612536591061395445E-30, -3.050000000000002487, -7.482602189496542999E-16 ) ) ;
#19 = COORDINATED_UNIVERSAL_TIME_OFFSET ( 1, 0, .AHEAD. ) ;
#20 =( NAMED_UNIT ( * ) SI_UNIT ( $, .STERADIAN. ) SOLID_ANGLE_UNIT ( ) );
#21 = AXIS2_PLACEMENT_3D ( 'NONE', #120, #239, #199 ) ;
#22 = UNCERTAINTY_MEASURE_WITH_UNIT (LENGTH_MEASURE( 1.000000000000000082E-05 ), #80, 'distance_accuracy_value', 'NONE');
#23 = APPROVAL ( #112, 'UNSPECIFIED' ) ;
#24 = ORIENTED_EDGE ( 'NONE', *, *, #135, .T. ) ;
#25 = EDGE_LOOP ( 'NONE', ( #43 ) ) ;
#26 = CIRCLE ( 'NONE', #104, 4.000000000000002665 ) ;
#27 = COORDINATED_UNIVERSAL_TIME_OFFSET ( 1, 0, .AHEAD. ) ;
#28 = APPROVAL ( #158, 'UNSPECIFIED' ) ;
#29 = MANIFOLD_SOLID_BREP ( 'Corps-Déplacer/Copier1[2]', #172 ) ;
#30 = FACE_OUTER_BOUND ( 'NONE', #119, .T. ) ;
#31 = CARTESIAN_POINT ( 'NONE',  ( 4.538925740496073362E-14, 2.999519565323710837E-32, 13.00000000000000000 ) ) ;
#32 = ADVANCED_FACE ( 'NONE', ( #15 ), #233, .F. ) ;
#33 = DIRECTION ( 'NONE',  ( -3.491481338843133355E-15, 1.227517819005651059E-16, -1.000000000000000000 ) ) ;
#34 = CARTESIAN_POINT ( 'NONE',  ( -6.413731847436034514E-31, 0.0000000000000000000, -1.836965810494968570E-16 ) ) ;
#35 = ORGANIZATION ( 'UNSPECIFIED', 'UNSPECIFIED', '' ) ;
#36 = DIRECTION ( 'NONE',  ( 3.491481338843133355E-15, -1.226656096638776648E-16, 1.000000000000000000 ) ) ;
#37 =( NAMED_UNIT ( * ) PLANE_ANGLE_UNIT ( ) SI_UNIT ( $, .RADIAN. ) );
#38 = DIRECTION ( 'NONE',  ( -3.491481338843133355E-15, 1.224646799147353207E-16, -1.000000000000000000 ) ) ;
#39 = DIRECTION ( 'NONE',  ( 1.000000000000000000, 0.0000000000000000000, 0.0000000000000000000 ) ) ;
#40 = CC_DESIGN_SECURITY_CLASSIFICATION ( #160, ( #67 ) ) ;
#41 = ORIENTED_EDGE ( 'NONE', *, *, #221, .F. ) ;
#42 = DATE_TIME_ROLE ( 'classification_date' ) ;
#43 = ORIENTED_EDGE ( 'NONE', *, *, #101, .F. ) ;
#44 = CC_DESIGN_APPROVAL ( #6, ( #67 ) ) ;
#45 = ORIENTED_EDGE ( 'NONE', *, *, #63, .F. ) ;
#46 = CARTESIAN_POINT ( 'NONE',  ( 2.199633243471174140E-13, -7.715274834628325378E-15, 63.00000000000000000 ) ) ;
#47 = DIRECTION ( 'NONE',  ( -4.341035390681907420E-31, -1.000000000000000000, -1.227517819005651059E-16 ) ) ;
#48 = CARTESIAN_POINT ( 'NONE',  ( 2.171701392760429073E-13, -7.617303090696536944E-15, 62.20000000000000284 ) ) ;
#49 = DIRECTION ( 'NONE',  ( 3.491481338843133355E-15, -1.227517819005651059E-16, 1.000000000000000000 ) ) ;
#50 = CC_DESIGN_DATE_AND_TIME_ASSIGNMENT ( #204, #171, ( #114 ) ) ;
#51 = AXIS2_PLACEMENT_3D ( 'NONE', #34, #74, #161 ) ;
#52 = APPLICATION_PROTOCOL_DEFINITION ( 'international standard', 'config_control_design', 1994, #147 ) ;
#53 = DIRECTION ( 'NONE',  ( 4.275831445896958607E-31, 1.000000000000000000, 1.224646799147353207E-16 ) ) ;
#54 = AXIS2_PLACEMENT_3D ( 'NONE', #203, #36, #167 ) ;
#55 = CARTESIAN_POINT ( 'NONE',  ( 4.538925740496072731E-14, -3.250000000000001332, 12.99999999999999822 ) ) ;
#56 = CARTESIAN_POINT ( 'NONE',  ( 0.0000000000000000000, 0.0000000000000000000, 0.0000000000000000000 ) ) ;
#57 = DATE_AND_TIME ( #100, #127 ) ;
#58 = PRODUCT_RELATED_PRODUCT_CATEGORY ( 'detail', '', ( #11 ) ) ;
#59 = CIRCLE ( 'NONE', #54, 3.050000000000002487 ) ;
#60 = PERSON ( 'UNSPECIFIED', 'UNSPECIFIED', 'UNSPECIFIED', ('UNSPECIFIED'), ('UNSPECIFIED'), ('UNSPECIFIED') ) ;
#61 = PERSON_AND_ORGANIZATION_ROLE ( 'design_supplier' ) ;
#62 = FACE_OUTER_BOUND ( 'NONE', #25, .T. ) ;
#63 = EDGE_CURVE ( 'NONE', #1, #1, #26, .T. ) ;
#64 = PERSON_AND_ORGANIZATION_ROLE ( 'creator' ) ;
#65 = EDGE_LOOP ( 'NONE', ( #193 ) ) ;
#66 = ORIENTED_EDGE ( 'NONE', *, *, #77, .F. ) ;
#67 = PRODUCT_DEFINITION_FORMATION_WITH_SPECIFIED_SOURCE ( 'ANY', '', #11, .NOT_KNOWN. ) ;
#68 = PRODUCT_DEFINITION_SHAPE ( 'NONE', 'NONE',  #114 ) ;
#69 = FACE_OUTER_BOUND ( 'NONE', #138, .T. ) ;
#70 = LOCAL_TIME ( 10, 15, 57.00000000000000000, #19 ) ;
#71 = DIRECTION ( 'NONE',  ( -4.275831445896958607E-31, -1.000000000000000000, -1.224646799147353207E-16 ) ) ;
#72 = CC_DESIGN_PERSON_AND_ORGANIZATION_ASSIGNMENT ( #220, #129, ( #114 ) ) ;
#73 = DIRECTION ( 'NONE',  ( -3.491481338843133355E-15, 1.224646799147353207E-16, -1.000000000000000000 ) ) ;
#74 = DIRECTION ( 'NONE',  ( 3.491481338843133355E-15, -1.227517819005651059E-16, 1.000000000000000000 ) ) ;
#75 = DATE_AND_TIME ( #154, #240 ) ;
#76 = CARTESIAN_POINT ( 'NONE',  ( 4.538925740496072731E-14, -3.250000000000001332, 12.99999999999999822 ) ) ;
#77 = EDGE_CURVE ( 'NONE', #96, #96, #189, .T. ) ;
#78 = AXIS2_PLACEMENT_3D ( 'NONE', #238, #234, #145 ) ;
#79 = APPROVAL_STATUS ( 'not_yet_approved' ) ;
#80 =( LENGTH_UNIT ( ) NAMED_UNIT ( * ) SI_UNIT ( .MILLI., .METRE. ) );
#81 = CIRCLE ( 'NONE', #177, 3.249999999999999556 ) ;
#82 = ORIENTED_EDGE ( 'NONE', *, *, #77, .T. ) ;
#83 = AXIS2_PLACEMENT_3D ( 'NONE', #46, #89, #124 ) ;
#84 = CARTESIAN_POINT ( 'NONE',  ( -3.206856022687257342E-31, 1.124813677168791889E-32, -9.184800694795683199E-17 ) ) ;
#85 = DIRECTION ( 'NONE',  ( 3.491481338843133355E-15, -1.224646799147353207E-16, 1.000000000000000000 ) ) ;
#86 = CARTESIAN_POINT ( 'NONE',  ( 6.982962677686228254E-16, -2.453312193277542387E-17, 0.1999999999999989009 ) ) ;
#87 = AXIS2_PLACEMENT_3D ( 'NONE', #222, #170, #39 ) ;
#88 = CC_DESIGN_PERSON_AND_ORGANIZATION_ASSIGNMENT ( #113, #205, ( #11 ) ) ;
#89 = DIRECTION ( 'NONE',  ( -3.491481338843133355E-15, 1.224646799147353207E-16, -1.000000000000000000 ) ) ;
#90 = CARTESIAN_POINT ( 'NONE',  ( 4.538925740496072731E-14, -1.595773164707346130E-15, 12.99999999999999822 ) ) ;
#91 = CONICAL_SURFACE ( 'NONE', #83, 3.200000000000003286, 0.7853981633974510546 ) ;
#92 = VERTEX_POINT ( 'NONE', #18 ) ;
#93 = CARTESIAN_POINT ( 'NONE',  ( 6.982962677686214449E-16, -3.249999999999999556, 0.1999999999999984845 ) ) ;
#94 = CALENDAR_DATE ( 2021, 1, 11 ) ;
#95 = APPROVAL_PERSON_ORGANIZATION ( #168, #23, #191 ) ;
#96 = VERTEX_POINT ( 'NONE', #93 ) ;
#97 = EDGE_LOOP ( 'NONE', ( #117 ) ) ;
#98 = SHAPE_DEFINITION_REPRESENTATION ( #68, #8 ) ;
#99 = EDGE_LOOP ( 'NONE', ( #45 ) ) ;
#100 = CALENDAR_DATE ( 2021, 1, 11 ) ;
#101 = EDGE_CURVE ( 'NONE', #110, #110, #81, .T. ) ;
#102 = AXIS2_PLACEMENT_3D ( 'NONE', #218, #103, #216 ) ;
#103 = DIRECTION ( 'NONE',  ( 3.491481338843133355E-15, -1.226656096638776648E-16, 1.000000000000000000 ) ) ;
#104 = AXIS2_PLACEMENT_3D ( 'NONE', #48, #105, #166 ) ;
#105 = DIRECTION ( 'NONE',  ( -3.491481338843133355E-15, 1.224646799147353207E-16, -1.000000000000000000 ) ) ;
#106 = DIRECTION ( 'NONE',  ( 0.0000000000000000000, -1.000000000000000000, 0.0000000000000000000 ) ) ;
#107 = FACE_OUTER_BOUND ( 'NONE', #140, .T. ) ;
#108 = DIRECTION ( 'NONE',  ( 4.275831445896958607E-31, 1.000000000000000000, 1.224646799147353207E-16 ) ) ;
#109 = ADVANCED_FACE ( 'NONE', ( #69 ), #141, .T. ) ;
#110 = VERTEX_POINT ( 'NONE', #55 ) ;
#111 = MANIFOLD_SOLID_BREP ( 'Corps-Déplacer/Copier1[1]', #121 ) ;
#112 = APPROVAL_STATUS ( 'not_yet_approved' ) ;
#113 = PERSON_AND_ORGANIZATION ( #60, #35 ) ;
#114 = PRODUCT_DEFINITION ( 'UNKNOWN', '', #67, #174 ) ;
#115 = CC_DESIGN_APPROVAL ( #28, ( #160 ) ) ;
#116 = PERSON_AND_ORGANIZATION ( #60, #35 ) ;
#117 = ORIENTED_EDGE ( 'NONE', *, *, #163, .T. ) ;
#118 = ORIENTED_EDGE ( 'NONE', *, *, #235, .T. ) ;
#119 = EDGE_LOOP ( 'NONE', ( #232 ) ) ;
#120 = CARTESIAN_POINT ( 'NONE',  ( 2.199633243471174140E-13, -7.715274834628325378E-15, 63.00000000000000000 ) ) ;
#121 = CLOSED_SHELL ( 'NONE', ( #243, #128, #123, #159, #132 ) ) ;
#122 = CARTESIAN_POINT ( 'NONE',  ( 5.719722842808384486E-14, -2.149862307622077181E-15, 16.38193731461716851 ) ) ;
#123 = ADVANCED_FACE ( 'NONE', ( #107 ), #10, .F. ) ;
#124 = DIRECTION ( 'NONE',  ( 0.0000000000000000000, 1.000000000000000000, 0.0000000000000000000 ) ) ;
#125 = DIRECTION ( 'NONE',  ( 3.491481338843133355E-15, -1.227517819005651059E-16, 1.000000000000000000 ) ) ;
#126 = FACE_BOUND ( 'NONE', #194, .T. ) ;
#127 = LOCAL_TIME ( 10, 15, 57.00000000000000000, #207 ) ;
#128 = ADVANCED_FACE ( 'NONE', ( #185, #148 ), #91, .T. ) ;
#129 = PERSON_AND_ORGANIZATION_ROLE ( 'creator' ) ;
#130 = MECHANICAL_CONTEXT ( 'NONE', #147, 'mechanical' ) ;
#131 = LOCAL_TIME ( 10, 15, 57.00000000000000000, #136 ) ;
#132 = ADVANCED_FACE ( 'NONE', ( #214 ), #146, .F. ) ;
#133 = CARTESIAN_POINT ( 'NONE',  ( 2.171701392760429073E-13, 3.999999999999994671, 62.20000000000000284 ) ) ;
#134 = CONICAL_SURFACE ( 'NONE', #102, 3.249999999999999556, 0.7853981633974427279 ) ;
#135 = EDGE_CURVE ( 'NONE', #152, #152, #4, .T. ) ;
#136 = COORDINATED_UNIVERSAL_TIME_OFFSET ( 1, 0, .AHEAD. ) ;
#137 = FACE_OUTER_BOUND ( 'NONE', #210, .T. ) ;
#138 = EDGE_LOOP ( 'NONE', ( #213 ) ) ;
#139 = TOROIDAL_SURFACE ( 'NONE', #226, 11.25000000000000000, 8.000000000000000000 ) ;
#140 = EDGE_LOOP ( 'NONE', ( #9 ) ) ;
#141 = PLANE ( 'NONE',  #206 ) ;
#142 = AXIS2_PLACEMENT_3D ( 'NONE', #86, #202, #16 ) ;
#143 = CARTESIAN_POINT ( 'NONE',  ( 4.538925740496072100E-14, -1.734723475976807094E-15, 12.99999999999999645 ) ) ;
#144 = CC_DESIGN_PERSON_AND_ORGANIZATION_ASSIGNMENT ( #178, #61, ( #67 ) ) ;
#145 = DIRECTION ( 'NONE',  ( 0.0000000000000000000, -1.000000000000000000, 0.0000000000000000000 ) ) ;
#146 = PLANE ( 'NONE',  #169 ) ;
#147 = APPLICATION_CONTEXT ( 'configuration controlled 3d designs of mechanical parts and assemblies' ) ;
#148 = FACE_BOUND ( 'NONE', #198, .T. ) ;
#149 = CC_DESIGN_DATE_AND_TIME_ASSIGNMENT ( #192, #42, ( #160 ) ) ;
#150 = APPROVAL_DATE_TIME ( #75, #23 ) ;
#151 = CYLINDRICAL_SURFACE ( 'NONE', #215, 4.000000000000000000 ) ;
#152 = VERTEX_POINT ( 'NONE', #76 ) ;
#153 = CC_DESIGN_APPROVAL ( #23, ( #114 ) ) ;
#154 = CALENDAR_DATE ( 2021, 1, 11 ) ;
#155 = CALENDAR_DATE ( 2021, 1, 11 ) ;
#156 = AXIS2_PLACEMENT_3D ( 'NONE', #84, #183, #12 ) ;
#157 = ORIENTED_EDGE ( 'NONE', *, *, #135, .F. ) ;
#158 = APPROVAL_STATUS ( 'not_yet_approved' ) ;
#159 = ADVANCED_FACE ( 'NONE', ( #201, #217 ), #139, .F. ) ;
#160 = SECURITY_CLASSIFICATION ( '', '', #225 ) ;
#161 = DIRECTION ( 'NONE',  ( -4.285855558155654155E-31, -1.000000000000000000, -1.227517819005651059E-16 ) ) ;
#162 = DIRECTION ( 'NONE',  ( 3.491481338843133355E-15, -1.224646799147353207E-16, 1.000000000000000000 ) ) ;
#163 = EDGE_CURVE ( 'NONE', #188, #188, #241, .T. ) ;
#164 = AXIS2_PLACEMENT_3D ( 'NONE', #122, #33, #187 ) ;
#165 = CARTESIAN_POINT ( 'NONE',  ( 2.199633243471174140E-13, 2.399615652258963141E-32, 63.00000000000000000 ) ) ;
#166 = DIRECTION ( 'NONE',  ( 0.0000000000000000000, 1.000000000000000000, 0.0000000000000000000 ) ) ;
#167 = DIRECTION ( 'NONE',  ( -4.282846870592448247E-31, -1.000000000000000000, -1.226656096638776648E-16 ) ) ;
#168 = PERSON_AND_ORGANIZATION ( #60, #35 ) ;
#169 = AXIS2_PLACEMENT_3D ( 'NONE', #31, #162, #71 ) ;
#170 = DIRECTION ( 'NONE',  ( 0.0000000000000000000, 0.0000000000000000000, 1.000000000000000000 ) ) ;
#171 = DATE_TIME_ROLE ( 'creation_date' ) ;
#172 = CLOSED_SHELL ( 'NONE', ( #2, #109, #175, #32 ) ) ;
#173 = CARTESIAN_POINT ( 'NONE',  ( 5.719722842808384486E-14, 3.999999999999998224, 16.38193731461716851 ) ) ;
#174 = DESIGN_CONTEXT ( 'detailed design', #186, 'design' ) ;
#175 = ADVANCED_FACE ( 'NONE', ( #126, #200 ), #134, .T. ) ;
#176 = DATE_AND_TIME ( #180, #211 ) ;
#177 = AXIS2_PLACEMENT_3D ( 'NONE', #90, #125, #106 ) ;
#178 = PERSON_AND_ORGANIZATION ( #60, #35 ) ;
#179 = EDGE_LOOP ( 'NONE', ( #24 ) ) ;
#180 = CALENDAR_DATE ( 2021, 1, 11 ) ;
#181 = FACE_OUTER_BOUND ( 'NONE', #65, .T. ) ;
#182 = DIRECTION ( 'NONE',  ( -4.275831445896958607E-31, -1.000000000000000000, -1.224646799147353207E-16 ) ) ;
#183 = DIRECTION ( 'NONE',  ( 3.491481338843133355E-15, -1.224646799147353207E-16, 1.000000000000000000 ) ) ;
#184 = APPROVAL_PERSON_ORGANIZATION ( #212, #28, #197 ) ;
#185 = FACE_OUTER_BOUND ( 'NONE', #99, .T. ) ;
#186 = APPLICATION_CONTEXT ( 'configuration controlled 3d designs of mechanical parts and assemblies' ) ;
#187 = DIRECTION ( 'NONE',  ( 0.0000000000000000000, 1.000000000000000000, 0.0000000000000000000 ) ) ;
#188 = VERTEX_POINT ( 'NONE', #173 ) ;
#189 = CIRCLE ( 'NONE', #142, 3.249999999999999556 ) ;
#190 = CC_DESIGN_PERSON_AND_ORGANIZATION_ASSIGNMENT ( #116, #231, ( #160 ) ) ;
#191 = APPROVAL_ROLE ( '' ) ;
#192 = DATE_AND_TIME ( #155, #131 ) ;
#193 = ORIENTED_EDGE ( 'NONE', *, *, #163, .F. ) ;
#194 = EDGE_LOOP ( 'NONE', ( #228 ) ) ;
#195 = EDGE_LOOP ( 'NONE', ( #66 ) ) ;
#196 = AXIS2_PLACEMENT_3D ( 'NONE', #165, #73, #108 ) ;
#197 = APPROVAL_ROLE ( '' ) ;
#198 = EDGE_LOOP ( 'NONE', ( #118 ) ) ;
#199 = DIRECTION ( 'NONE',  ( 0.0000000000000000000, 1.000000000000000000, 0.0000000000000000000 ) ) ;
#200 = FACE_OUTER_BOUND ( 'NONE', #195, .T. ) ;
#201 = FACE_OUTER_BOUND ( 'NONE', #179, .T. ) ;
#202 = DIRECTION ( 'NONE',  ( 3.491481338843133355E-15, -1.226656096638776648E-16, 1.000000000000000000 ) ) ;
#203 = CARTESIAN_POINT ( 'NONE',  ( -1.306268295530697547E-30, 1.929403387497595795E-32, -3.741301094748271500E-16 ) ) ;
#204 = DATE_AND_TIME ( #94, #70 ) ;
#205 = PERSON_AND_ORGANIZATION_ROLE ( 'design_owner' ) ;
#206 = AXIS2_PLACEMENT_3D ( 'NONE', #13, #85, #182 ) ;
#207 = COORDINATED_UNIVERSAL_TIME_OFFSET ( 1, 0, .AHEAD. ) ;
#208 = APPROVAL_DATE_TIME ( #176, #28 ) ;
#209 = PERSON_AND_ORGANIZATION ( #60, #35 ) ;
#210 = EDGE_LOOP ( 'NONE', ( #82 ) ) ;
#211 = LOCAL_TIME ( 10, 15, 57.00000000000000000, #27 ) ;
#212 = PERSON_AND_ORGANIZATION ( #60, #35 ) ;
#213 = ORIENTED_EDGE ( 'NONE', *, *, #101, .T. ) ;
#214 = FACE_OUTER_BOUND ( 'NONE', #230, .T. ) ;
#215 = AXIS2_PLACEMENT_3D ( 'NONE', #56, #38, #53 ) ;
#216 = DIRECTION ( 'NONE',  ( -4.148156803295585723E-31, -1.000000000000000000, -1.251002506714043786E-16 ) ) ;
#217 = FACE_OUTER_BOUND ( 'NONE', #97, .T. ) ;
#218 = CARTESIAN_POINT ( 'NONE',  ( 6.982962677686228254E-16, -2.453312193277542387E-17, 0.1999999999999989009 ) ) ;
#219 =( GEOMETRIC_REPRESENTATION_CONTEXT ( 3 ) GLOBAL_UNCERTAINTY_ASSIGNED_CONTEXT ( ( #22 ) ) GLOBAL_UNIT_ASSIGNED_CONTEXT ( ( #80, #37, #20 ) ) REPRESENTATION_CONTEXT ( 'NONE', 'WORKASPACE' ) );
#220 = PERSON_AND_ORGANIZATION ( #60, #35 ) ;
#221 = EDGE_CURVE ( 'NONE', #92, #92, #59, .T. ) ;
#222 = CARTESIAN_POINT ( 'NONE',  ( 0.0000000000000000000, 0.0000000000000000000, 0.0000000000000000000 ) ) ;
#223 = CARTESIAN_POINT ( 'NONE',  ( 2.199633243471174140E-13, 3.199999999999995293, 63.00000000000000000 ) ) ;
#224 = APPROVAL_ROLE ( '' ) ;
#225 = SECURITY_CLASSIFICATION_LEVEL ( 'unclassified' ) ;
#226 = AXIS2_PLACEMENT_3D ( 'NONE', #143, #49, #47 ) ;
#227 = APPROVAL_DATE_TIME ( #57, #6 ) ;
#228 = ORIENTED_EDGE ( 'NONE', *, *, #221, .T. ) ;
#229 = CC_DESIGN_PERSON_AND_ORGANIZATION_ASSIGNMENT ( #209, #64, ( #67 ) ) ;
#230 = EDGE_LOOP ( 'NONE', ( #157 ) ) ;
#231 = PERSON_AND_ORGANIZATION_ROLE ( 'classification_officer' ) ;
#232 = ORIENTED_EDGE ( 'NONE', *, *, #63, .T. ) ;
#233 = PLANE ( 'NONE',  #156 ) ;
#234 = DIRECTION ( 'NONE',  ( 3.491481338843133355E-15, -1.227517819005651059E-16, 1.000000000000000000 ) ) ;
#235 = EDGE_CURVE ( 'NONE', #5, #5, #14, .T. ) ;
#236 = APPROVAL_PERSON_ORGANIZATION ( #3, #6, #224 ) ;
#237 = CYLINDRICAL_SURFACE ( 'NONE', #51, 3.249999999999999112 ) ;
#238 = CARTESIAN_POINT ( 'NONE',  ( 4.538925740496072731E-14, -1.595773164707346130E-15, 12.99999999999999822 ) ) ;
#239 = DIRECTION ( 'NONE',  ( -3.491481338843133355E-15, 1.224646799147353207E-16, -1.000000000000000000 ) ) ;
#240 = LOCAL_TIME ( 10, 15, 57.00000000000000000, #242 ) ;
#241 = CIRCLE ( 'NONE', #164, 4.000000000000000000 ) ;
#242 = COORDINATED_UNIVERSAL_TIME_OFFSET ( 1, 0, .AHEAD. ) ;
#243 = ADVANCED_FACE ( 'NONE', ( #30, #181 ), #151, .T. ) ;
ENDSEC;
END-ISO-10303-21;
