ISO-10303-21;
HEADER;
FILE_DESCRIPTION (( 'STEP AP203' ),
    '1' );
FILE_NAME ('28594.step',
    '2021-09-03T07:21:47',
    ( '' ),
    ( '' ),
    'SwSTEP 2.0',
    'SolidWorks 2019',
    '' );
FILE_SCHEMA (( 'CONFIG_CONTROL_DESIGN' ));
ENDSEC;

DATA;
#1 = ORIENTED_EDGE ( 'NONE', *, *, #73, .F. ) ;
#2 = PLANE ( 'NONE',  #296 ) ;
#3 = AXIS2_PLACEMENT_3D ( 'NONE', #242, #326, #20 ) ;
#4 = EDGE_CURVE ( 'NONE', #307, #127, #75, .T. ) ;
#5 = ORIENTED_EDGE ( 'NONE', *, *, #175, .T. ) ;
#6 = ADVANCED_FACE ( 'NONE', ( #232 ), #108, .T. ) ;
#7 = ORIENTED_EDGE ( 'NONE', *, *, #271, .F. ) ;
#8 = DIRECTION ( 'NONE',  ( -3.491481338843133355E-15, 1.224646799147353207E-16, -1.000000000000000000 ) ) ;
#9 = EDGE_LOOP ( 'NONE', ( #77, #26 ) ) ;
#10 = DIRECTION ( 'NONE',  ( -3.491481338843133355E-15, 1.224646799147353207E-16, -1.000000000000000000 ) ) ;
#11 = CC_DESIGN_SECURITY_CLASSIFICATION ( #42, ( #216 ) ) ;
#12 = DIRECTION ( 'NONE',  ( -3.491481338843133355E-15, 1.224646799147353207E-16, -1.000000000000000000 ) ) ;
#13 = DIRECTION ( 'NONE',  ( -3.491481338843133355E-15, 1.224646799147353207E-16, -1.000000000000000000 ) ) ;
#14 = APPROVAL_STATUS ( 'not_yet_approved' ) ;
#15 = CARTESIAN_POINT ( 'NONE',  ( 6.188786233812403845E-15, -2.170733999786123531E-16, 1.772538826131316192 ) ) ;
#16 = LINE ( 'NONE', #193, #213 ) ;
#17 = ORIENTED_EDGE ( 'NONE', *, *, #205, .T. ) ;
#18 = PERSON ( 'UNSPECIFIED', 'UNSPECIFIED', 'UNSPECIFIED', ('UNSPECIFIED'), ('UNSPECIFIED'), ('UNSPECIFIED') ) ;
#19 = CIRCLE ( 'NONE', #122, 2.949999999999989075 ) ;
#20 = DIRECTION ( 'NONE',  ( 0.0000000000000000000, 1.000000000000000000, 0.0000000000000000000 ) ) ;
#21 = AXIS2_PLACEMENT_3D ( 'NONE', #107, #12, #319 ) ;
#22 = CIRCLE ( 'NONE', #218, 2.349999999999997424 ) ;
#23 = ORIENTED_EDGE ( 'NONE', *, *, #205, .F. ) ;
#24 = DIRECTION ( 'NONE',  ( -3.491481338843133355E-15, 1.224646799147353207E-16, -1.000000000000000000 ) ) ;
#25 = DIRECTION ( 'NONE',  ( -3.491481338843133355E-15, 1.224646799147353207E-16, -1.000000000000000000 ) ) ;
#26 = ORIENTED_EDGE ( 'NONE', *, *, #69, .F. ) ;
#27 = EDGE_LOOP ( 'NONE', ( #310, #5, #287, #258 ) ) ;
#28 = EDGE_CURVE ( 'NONE', #133, #29, #64, .T. ) ;
#29 = VERTEX_POINT ( 'NONE', #236 ) ;
#30 = AXIS2_PLACEMENT_3D ( 'NONE', #87, #189, #165 ) ;
#31 = ORIENTED_EDGE ( 'NONE', *, *, #289, .F. ) ;
#32 = ADVANCED_FACE ( 'NONE', ( #111 ), #337, .T. ) ;
#33 = CARTESIAN_POINT ( 'NONE',  ( 6.188786233812403845E-15, -2.170733999786123531E-16, 1.772538826131316192 ) ) ;
#34 =( GEOMETRIC_REPRESENTATION_CONTEXT ( 3 ) GLOBAL_UNCERTAINTY_ASSIGNED_CONTEXT ( ( #104 ) ) GLOBAL_UNIT_ASSIGNED_CONTEXT ( ( #280, #151, #253 ) ) REPRESENTATION_CONTEXT ( 'NONE', 'WORKASPACE' ) );
#35 = CARTESIAN_POINT ( 'NONE',  ( 6.550057039560873006E-15, 2.949999999999988631, 1.772538826131316636 ) ) ;
#36 = LINE ( 'NONE', #140, #181 ) ;
#37 = EDGE_CURVE ( 'NONE', #127, #307, #295, .T. ) ;
#38 = APPROVAL_DATE_TIME ( #267, #303 ) ;
#39 = CARTESIAN_POINT ( 'NONE',  ( 0.0000000000000000000, 0.0000000000000000000, 0.0000000000000000000 ) ) ;
#40 = CC_DESIGN_PERSON_AND_ORGANIZATION_ASSIGNMENT ( #185, #132, ( #42 ) ) ;
#41 = DIRECTION ( 'NONE',  ( -2.382254525458725358E-15, -0.7071067811865449082, -0.7071067811865501263 ) ) ;
#42 = SECURITY_CLASSIFICATION ( '', '', #177 ) ;
#43 = EDGE_CURVE ( 'NONE', #118, #307, #163, .T. ) ;
#44 = CARTESIAN_POINT ( 'NONE',  ( 1.511932646437716668E-13, -2.950000000000004174, 65.40000000000000568 ) ) ;
#45 = DATE_AND_TIME ( #252, #247 ) ;
#46 = AXIS2_PLACEMENT_3D ( 'NONE', #239, #117, #143 ) ;
#47 = EDGE_LOOP ( 'NONE', ( #315, #148, #96 ) ) ;
#48 = EDGE_CURVE ( 'NONE', #29, #202, #80, .T. ) ;
#49 = ADVANCED_BREP_SHAPE_REPRESENTATION ( '28594', ( #61, #277, #30 ), #34 ) ;
#50 = DATE_AND_TIME ( #306, #139 ) ;
#51 = AXIS2_PLACEMENT_3D ( 'NONE', #97, #25, #249 ) ;
#52 = CYLINDRICAL_SURFACE ( 'NONE', #301, 2.949999999999989964 ) ;
#53 = PERSON_AND_ORGANIZATION ( #18, #256 ) ;
#54 = ORIENTED_EDGE ( 'NONE', *, *, #144, .T. ) ;
#55 = CARTESIAN_POINT ( 'NONE',  ( 6.188786233812403845E-15, -2.170733999786123531E-16, 1.772538826131316192 ) ) ;
#56 = ORIENTED_EDGE ( 'NONE', *, *, #90, .F. ) ;
#57 = CARTESIAN_POINT ( 'NONE',  ( 6.188786233812402268E-15, -2.949999999999989519, 1.772538826131315748 ) ) ;
#58 = AXIS2_PLACEMENT_3D ( 'NONE', #195, #24, #128 ) ;
#59 = CYLINDRICAL_SURFACE ( 'NONE', #89, 2.949999999999993960 ) ;
#60 = EDGE_LOOP ( 'NONE', ( #248, #1 ) ) ;
#61 = MANIFOLD_SOLID_BREP ( 'Corps-Déplacer/Copier1[1]', #129 ) ;
#62 = DIRECTION ( 'NONE',  ( -3.491481338843133355E-15, 1.224646799147353207E-16, -1.000000000000000000 ) ) ;
#63 = DIRECTION ( 'NONE',  ( 5.222860866134895816E-31, 1.000000000000000000, 1.470104640658316424E-16 ) ) ;
#64 = LINE ( 'NONE', #35, #161 ) ;
#65 = DIRECTION ( 'NONE',  ( 0.0000000000000000000, 1.000000000000000000, 0.0000000000000000000 ) ) ;
#66 = AXIS2_PLACEMENT_3D ( 'NONE', #270, #299, #65 ) ;
#67 = DIRECTION ( 'NONE',  ( 0.0000000000000000000, 1.000000000000000000, 0.0000000000000000000 ) ) ;
#68 = CARTESIAN_POINT ( 'NONE',  ( 2.307255603614464328E-13, -2.350000000000005862, 66.00000000000000000 ) ) ;
#69 = EDGE_CURVE ( 'NONE', #149, #204, #272, .T. ) ;
#70 = APPROVAL_PERSON_ORGANIZATION ( #157, #303, #230 ) ;
#71 = CALENDAR_DATE ( 2021, 3, 9 ) ;
#72 = ORIENTED_EDGE ( 'NONE', *, *, #271, .T. ) ;
#73 = EDGE_CURVE ( 'NONE', #284, #281, #22, .T. ) ;
#74 = APPROVAL_DATE_TIME ( #50, #153 ) ;
#75 = CIRCLE ( 'NONE', #263, 2.949999999999991296 ) ;
#76 = AXIS2_PLACEMENT_3D ( 'NONE', #15, #83, #131 ) ;
#77 = ORIENTED_EDGE ( 'NONE', *, *, #255, .F. ) ;
#78 = PERSON_AND_ORGANIZATION ( #18, #256 ) ;
#79 = LINE ( 'NONE', #103, #92 ) ;
#80 = CIRCLE ( 'NONE', #264, 2.949999999999989075 ) ;
#81 = ORIENTED_EDGE ( 'NONE', *, *, #144, .F. ) ;
#82 = CARTESIAN_POINT ( 'NONE',  ( 2.304377683636468267E-13, -8.082668874372532400E-15, 66.00000000000000000 ) ) ;
#83 = DIRECTION ( 'NONE',  ( 3.491481338843133355E-15, -1.224646799147353207E-16, 1.000000000000000000 ) ) ;
#84 = CARTESIAN_POINT ( 'NONE',  ( 7.332110811570580046E-14, 2.212145679426229571E-32, 21.00000000000000000 ) ) ;
#85 = PRODUCT_DEFINITION ( 'UNKNOWN', '', #216, #316 ) ;
#86 = APPROVAL_DATE_TIME ( #211, #95 ) ;
#87 = CARTESIAN_POINT ( 'NONE',  ( 0.0000000000000000000, 0.0000000000000000000, 0.0000000000000000000 ) ) ;
#88 = DIRECTION ( 'NONE',  ( -3.491481338843133355E-15, 1.224646799147353207E-16, -1.000000000000000000 ) ) ;
#89 = AXIS2_PLACEMENT_3D ( 'NONE', #182, #221, #219 ) ;
#90 = EDGE_CURVE ( 'NONE', #202, #29, #19, .T. ) ;
#91 = COORDINATED_UNIVERSAL_TIME_OFFSET ( 1, 0, .AHEAD. ) ;
#92 = VECTOR ( 'NONE', #10, 1000.000000000000000 ) ;
#93 = ORIENTED_EDGE ( 'NONE', *, *, #37, .F. ) ;
#94 = EDGE_CURVE ( 'NONE', #133, #202, #16, .T. ) ;
#95 = APPROVAL ( #14, 'UNSPECIFIED' ) ;
#96 = ORIENTED_EDGE ( 'NONE', *, *, #90, .T. ) ;
#97 = CARTESIAN_POINT ( 'NONE',  ( 2.304377683636468267E-13, -8.082668874372532400E-15, 66.00000000000000000 ) ) ;
#98 = PERSON_AND_ORGANIZATION ( #18, #256 ) ;
#99 = CIRCLE ( 'NONE', #58, 2.949999999999996625 ) ;
#100 = ADVANCED_FACE ( 'NONE', ( #188 ), #322, .T. ) ;
#101 = DIRECTION ( 'NONE',  ( 3.491481338843133355E-15, -1.224646799147353207E-16, 1.000000000000000000 ) ) ;
#102 = ORIENTED_EDGE ( 'NONE', *, *, #48, .T. ) ;
#103 = CARTESIAN_POINT ( 'NONE',  ( 1.261370276539598489E-30, 2.949999999999989964, 3.612708057484679771E-16 ) ) ;
#104 = UNCERTAINTY_MEASURE_WITH_UNIT (LENGTH_MEASURE( 1.000000000000000082E-05 ), #280, 'distance_accuracy_value', 'NONE');
#105 = SHAPE_DEFINITION_REPRESENTATION ( #196, #49 ) ;
#106 = LOCAL_TIME ( 9, 21, 47.00000000000000000, #262 ) ;
#107 = CARTESIAN_POINT ( 'NONE',  ( 0.0000000000000000000, 0.0000000000000000000, 0.0000000000000000000 ) ) ;
#108 = CYLINDRICAL_SURFACE ( 'NONE', #21, 2.949999999999989964 ) ;
#109 = DIRECTION ( 'NONE',  ( -3.491481338843133355E-15, 1.224646799147353207E-16, -1.000000000000000000 ) ) ;
#110 = PERSON_AND_ORGANIZATION_ROLE ( 'design_owner' ) ;
#111 = FACE_OUTER_BOUND ( 'NONE', #254, .T. ) ;
#112 = LINE ( 'NONE', #68, #327 ) ;
#113 = LOCAL_TIME ( 9, 21, 47.00000000000000000, #91 ) ;
#114 = DIRECTION ( 'NONE',  ( -3.491481338843133355E-15, 1.224646799147353207E-16, -1.000000000000000000 ) ) ;
#115 = PERSON_AND_ORGANIZATION ( #18, #256 ) ;
#116 = CC_DESIGN_PERSON_AND_ORGANIZATION_ASSIGNMENT ( #304, #169, ( #85 ) ) ;
#117 = DIRECTION ( 'NONE',  ( 3.491481338843133355E-15, -1.224646799147353207E-16, 1.000000000000000000 ) ) ;
#118 = VERTEX_POINT ( 'NONE', #44 ) ;
#119 = VECTOR ( 'NONE', #212, 1000.000000000000000 ) ;
#120 = PRODUCT ( '28594', '28594', '', ( #269 ) ) ;
#121 = CARTESIAN_POINT ( 'NONE',  ( 0.0000000000000000000, 0.0000000000000000000, 0.0000000000000000000 ) ) ;
#122 = AXIS2_PLACEMENT_3D ( 'NONE', #33, #114, #63 ) ;
#123 = ADVANCED_FACE ( 'NONE', ( #192 ), #136, .T. ) ;
#124 = EDGE_LOOP ( 'NONE', ( #54, #314, #93, #305 ) ) ;
#125 = FACE_OUTER_BOUND ( 'NONE', #47, .T. ) ;
#126 = CARTESIAN_POINT ( 'NONE',  ( 2.304377683636468267E-13, -8.082668874372532400E-15, 66.00000000000000000 ) ) ;
#127 = VERTEX_POINT ( 'NONE', #275 ) ;
#128 = DIRECTION ( 'NONE',  ( 0.0000000000000000000, 1.000000000000000000, 0.0000000000000000000 ) ) ;
#129 = CLOSED_SHELL ( 'NONE', ( #300, #100, #234, #325, #328, #167 ) ) ;
#130 = CIRCLE ( 'NONE', #66, 2.949999999999991296 ) ;
#131 = DIRECTION ( 'NONE',  ( -5.222860866134895816E-31, -1.000000000000000000, -1.470104640658316424E-16 ) ) ;
#132 = PERSON_AND_ORGANIZATION_ROLE ( 'classification_officer' ) ;
#133 = VERTEX_POINT ( 'NONE', #121 ) ;
#134 = DIRECTION ( 'NONE',  ( -2.468850131082273232E-15, 0.7071067811865451302, -0.7071067811865499042 ) ) ;
#135 = EDGE_LOOP ( 'NONE', ( #330, #222 ) ) ;
#136 = PLANE ( 'NONE',  #46 ) ;
#137 = PERSON_AND_ORGANIZATION ( #18, #256 ) ;
#138 = FACE_OUTER_BOUND ( 'NONE', #309, .T. ) ;
#139 = LOCAL_TIME ( 9, 21, 47.00000000000000000, #278 ) ;
#140 = CARTESIAN_POINT ( 'NONE',  ( 1.261370276539600240E-30, 2.949999999999993960, 3.612708057484684701E-16 ) ) ;
#141 = EDGE_CURVE ( 'NONE', #281, #284, #302, .T. ) ;
#142 = DATE_TIME_ROLE ( 'creation_date' ) ;
#143 = DIRECTION ( 'NONE',  ( -4.275831445896958607E-31, -1.000000000000000000, -1.224646799147353207E-16 ) ) ;
#144 = EDGE_CURVE ( 'NONE', #166, #118, #99, .T. ) ;
#145 = CC_DESIGN_APPROVAL ( #303, ( #42 ) ) ;
#146 = FACE_OUTER_BOUND ( 'NONE', #199, .T. ) ;
#147 = ORIENTED_EDGE ( 'NONE', *, *, #94, .F. ) ;
#148 = ORIENTED_EDGE ( 'NONE', *, *, #94, .T. ) ;
#149 = VERTEX_POINT ( 'NONE', #229 ) ;
#150 = EDGE_CURVE ( 'NONE', #204, #29, #79, .T. ) ;
#151 =( NAMED_UNIT ( * ) PLANE_ANGLE_UNIT ( ) SI_UNIT ( $, .RADIAN. ) );
#152 = ORIENTED_EDGE ( 'NONE', *, *, #255, .T. ) ;
#153 = APPROVAL ( #200, 'UNSPECIFIED' ) ;
#154 = APPROVAL_PERSON_ORGANIZATION ( #98, #153, #171 ) ;
#155 = ORIENTED_EDGE ( 'NONE', *, *, #175, .F. ) ;
#156 = ORIENTED_EDGE ( 'NONE', *, *, #150, .F. ) ;
#157 = PERSON_AND_ORGANIZATION ( #18, #256 ) ;
#158 = CC_DESIGN_PERSON_AND_ORGANIZATION_ASSIGNMENT ( #137, #110, ( #120 ) ) ;
#159 = DIRECTION ( 'NONE',  ( 0.0000000000000000000, 1.000000000000000000, 0.0000000000000000000 ) ) ;
#160 = CARTESIAN_POINT ( 'NONE',  ( 2.283428795603408836E-13, 2.949999999999988631, 65.40000000000000568 ) ) ;
#161 = VECTOR ( 'NONE', #208, 999.9999999999998863 ) ;
#162 = AXIS2_PLACEMENT_3D ( 'NONE', #84, #187, #294 ) ;
#163 = LINE ( 'NONE', #265, #119 ) ;
#164 = LINE ( 'NONE', #233, #231 ) ;
#165 = DIRECTION ( 'NONE',  ( 1.000000000000000000, 0.0000000000000000000, 0.0000000000000000000 ) ) ;
#166 = VERTEX_POINT ( 'NONE', #160 ) ;
#167 = ADVANCED_FACE ( 'NONE', ( #203 ), #2, .F. ) ;
#168 = DIRECTION ( 'NONE',  ( -3.491481338843133355E-15, 1.224646799147353207E-16, -1.000000000000000000 ) ) ;
#169 = PERSON_AND_ORGANIZATION_ROLE ( 'creator' ) ;
#170 = CONICAL_SURFACE ( 'NONE', #3, 2.349999999999997424, 0.7853981633974447263 ) ;
#171 = APPROVAL_ROLE ( '' ) ;
#172 = CARTESIAN_POINT ( 'NONE',  ( 1.511932646437717678E-13, -2.949999999999993960, 21.00000000000000000 ) ) ;
#173 = PERSON_AND_ORGANIZATION_ROLE ( 'creator' ) ;
#174 = CC_DESIGN_APPROVAL ( #95, ( #85 ) ) ;
#175 = EDGE_CURVE ( 'NONE', #118, #166, #308, .T. ) ;
#176 = ORIENTED_EDGE ( 'NONE', *, *, #141, .T. ) ;
#177 = SECURITY_CLASSIFICATION_LEVEL ( 'unclassified' ) ;
#178 = CARTESIAN_POINT ( 'NONE',  ( 0.0000000000000000000, 0.0000000000000000000, 0.0000000000000000000 ) ) ;
#179 = DIRECTION ( 'NONE',  ( -3.491481338843133355E-15, 1.224646799147353207E-16, -1.000000000000000000 ) ) ;
#180 = CC_DESIGN_APPROVAL ( #153, ( #216 ) ) ;
#181 = VECTOR ( 'NONE', #13, 1000.000000000000000 ) ;
#182 = CARTESIAN_POINT ( 'NONE',  ( 0.0000000000000000000, 0.0000000000000000000, 0.0000000000000000000 ) ) ;
#183 = EDGE_LOOP ( 'NONE', ( #152, #17, #220, #156 ) ) ;
#184 = DIRECTION ( 'NONE',  ( -3.491481338843133355E-15, 1.224646799147353207E-16, -1.000000000000000000 ) ) ;
#185 = PERSON_AND_ORGANIZATION ( #18, #256 ) ;
#186 = CARTESIAN_POINT ( 'NONE',  ( 7.332110811570580046E-14, -2.571758278209441661E-15, 21.00000000000000000 ) ) ;
#187 = DIRECTION ( 'NONE',  ( 3.491481338843133355E-15, -1.224646799147353207E-16, 1.000000000000000000 ) ) ;
#188 = FACE_OUTER_BOUND ( 'NONE', #124, .T. ) ;
#189 = DIRECTION ( 'NONE',  ( 0.0000000000000000000, 0.0000000000000000000, 1.000000000000000000 ) ) ;
#190 = AXIS2_PLACEMENT_3D ( 'NONE', #126, #228, #259 ) ;
#191 = CARTESIAN_POINT ( 'NONE',  ( 6.188786233812403845E-15, -2.170733999786123531E-16, 1.772538826131316192 ) ) ;
#192 = FACE_OUTER_BOUND ( 'NONE', #9, .T. ) ;
#193 = CARTESIAN_POINT ( 'NONE',  ( 6.188786233812402268E-15, -2.949999999999989519, 1.772538826131315748 ) ) ;
#194 = AXIS2_PLACEMENT_3D ( 'NONE', #293, #88, #207 ) ;
#195 = CARTESIAN_POINT ( 'NONE',  ( 2.283428795603408836E-13, -8.009190066423689102E-15, 65.40000000000000568 ) ) ;
#196 = PRODUCT_DEFINITION_SHAPE ( 'NONE', 'NONE',  #85 ) ;
#197 = ADVANCED_FACE ( 'NONE', ( #125 ), #333, .T. ) ;
#198 = PRODUCT_RELATED_PRODUCT_CATEGORY ( 'detail', '', ( #120 ) ) ;
#199 = EDGE_LOOP ( 'NONE', ( #31, #251, #72, #155 ) ) ;
#200 = APPROVAL_STATUS ( 'not_yet_approved' ) ;
#201 = EDGE_LOOP ( 'NONE', ( #23, #223, #243, #56 ) ) ;
#202 = VERTEX_POINT ( 'NONE', #57 ) ;
#203 = FACE_OUTER_BOUND ( 'NONE', #60, .T. ) ;
#204 = VERTEX_POINT ( 'NONE', #226 ) ;
#205 = EDGE_CURVE ( 'NONE', #149, #202, #164, .T. ) ;
#206 = LOCAL_TIME ( 9, 21, 47.00000000000000000, #320 ) ;
#207 = DIRECTION ( 'NONE',  ( 0.0000000000000000000, 1.000000000000000000, 0.0000000000000000000 ) ) ;
#208 = DIRECTION ( 'NONE',  ( 1.903218546456022717E-15, 0.8571673007021097801, 0.5150380749100585964 ) ) ;
#209 = FACE_OUTER_BOUND ( 'NONE', #135, .T. ) ;
#210 = CALENDAR_DATE ( 2021, 3, 9 ) ;
#211 = DATE_AND_TIME ( #71, #113 ) ;
#212 = DIRECTION ( 'NONE',  ( -3.491481338843133355E-15, 1.224646799147353207E-16, -1.000000000000000000 ) ) ;
#213 = VECTOR ( 'NONE', #273, 1000.000000000000000 ) ;
#214 = PLANE ( 'NONE',  #162 ) ;
#215 = APPROVAL_ROLE ( '' ) ;
#216 = PRODUCT_DEFINITION_FORMATION_WITH_SPECIFIED_SOURCE ( 'ANY', '', #120, .NOT_KNOWN. ) ;
#217 = EDGE_CURVE ( 'NONE', #166, #127, #36, .T. ) ;
#218 = AXIS2_PLACEMENT_3D ( 'NONE', #82, #62, #159 ) ;
#219 = DIRECTION ( 'NONE',  ( 4.275831445896958607E-31, 1.000000000000000000, 1.224646799147353207E-16 ) ) ;
#220 = ORIENTED_EDGE ( 'NONE', *, *, #48, .F. ) ;
#221 = DIRECTION ( 'NONE',  ( -3.491481338843133355E-15, 1.224646799147353207E-16, -1.000000000000000000 ) ) ;
#222 = ORIENTED_EDGE ( 'NONE', *, *, #4, .T. ) ;
#223 = ORIENTED_EDGE ( 'NONE', *, *, #69, .T. ) ;
#224 = DATE_TIME_ROLE ( 'classification_date' ) ;
#225 = ORIENTED_EDGE ( 'NONE', *, *, #289, .T. ) ;
#226 = CARTESIAN_POINT ( 'NONE',  ( 7.332110811570580046E-14, 2.949999999999988631, 21.00000000000000000 ) ) ;
#227 = CC_DESIGN_PERSON_AND_ORGANIZATION_ASSIGNMENT ( #53, #250, ( #216 ) ) ;
#228 = DIRECTION ( 'NONE',  ( -3.491481338843133355E-15, 1.224646799147353207E-16, -1.000000000000000000 ) ) ;
#229 = CARTESIAN_POINT ( 'NONE',  ( 4.011621798050754015E-14, -2.949999999999993960, 21.00000000000000000 ) ) ;
#230 = APPROVAL_ROLE ( '' ) ;
#231 = VECTOR ( 'NONE', #109, 1000.000000000000000 ) ;
#232 = FACE_OUTER_BOUND ( 'NONE', #183, .T. ) ;
#233 = CARTESIAN_POINT ( 'NONE',  ( 3.612708057484667445E-16, -2.949999999999989964, -3.612708057484692097E-16 ) ) ;
#234 = ADVANCED_FACE ( 'NONE', ( #209 ), #214, .F. ) ;
#235 = APPLICATION_PROTOCOL_DEFINITION ( 'international standard', 'config_control_design', 1994, #257 ) ;
#236 = CARTESIAN_POINT ( 'NONE',  ( 6.550057039560873006E-15, 2.949999999999988631, 1.772538826131316636 ) ) ;
#237 = CARTESIAN_POINT ( 'NONE',  ( 2.304377683636468267E-13, 2.349999999999989431, 66.00000000000000000 ) ) ;
#238 = CARTESIAN_POINT ( 'NONE',  ( 2.297148553637678742E-13, -2.350000000000005862, 66.00000000000000000 ) ) ;
#239 = CARTESIAN_POINT ( 'NONE',  ( 7.332110811570580046E-14, 2.212145679426229571E-32, 21.00000000000000000 ) ) ;
#240 = APPLICATION_CONTEXT ( 'configuration controlled 3d designs of mechanical parts and assemblies' ) ;
#241 = AXIS2_PLACEMENT_3D ( 'NONE', #55, #101, #285 ) ;
#242 = CARTESIAN_POINT ( 'NONE',  ( 2.304377683636468267E-13, -8.082668874372532400E-15, 66.00000000000000000 ) ) ;
#243 = ORIENTED_EDGE ( 'NONE', *, *, #150, .T. ) ;
#244 = CLOSED_SHELL ( 'NONE', ( #6, #32, #197, #332, #123 ) ) ;
#245 = VECTOR ( 'NONE', #134, 1000.000000000000114 ) ;
#246 = ORIENTED_EDGE ( 'NONE', *, *, #28, .T. ) ;
#247 = LOCAL_TIME ( 9, 21, 47.00000000000000000, #274 ) ;
#248 = ORIENTED_EDGE ( 'NONE', *, *, #141, .F. ) ;
#249 = DIRECTION ( 'NONE',  ( 0.0000000000000000000, 1.000000000000000000, 0.0000000000000000000 ) ) ;
#250 = PERSON_AND_ORGANIZATION_ROLE ( 'design_supplier' ) ;
#251 = ORIENTED_EDGE ( 'NONE', *, *, #73, .T. ) ;
#252 = CALENDAR_DATE ( 2021, 3, 9 ) ;
#253 =( NAMED_UNIT ( * ) SI_UNIT ( $, .STERADIAN. ) SOLID_ANGLE_UNIT ( ) );
#254 = EDGE_LOOP ( 'NONE', ( #147, #246, #102 ) ) ;
#255 = EDGE_CURVE ( 'NONE', #204, #149, #130, .T. ) ;
#256 = ORGANIZATION ( 'UNSPECIFIED', 'UNSPECIFIED', '' ) ;
#257 = APPLICATION_CONTEXT ( 'configuration controlled 3d designs of mechanical parts and assemblies' ) ;
#258 = ORIENTED_EDGE ( 'NONE', *, *, #4, .F. ) ;
#259 = DIRECTION ( 'NONE',  ( 0.0000000000000000000, 1.000000000000000000, 0.0000000000000000000 ) ) ;
#260 = DIRECTION ( 'NONE',  ( -3.491481338843133355E-15, 1.224646799147353207E-16, -1.000000000000000000 ) ) ;
#261 = CARTESIAN_POINT ( 'NONE',  ( 2.304377683636468267E-13, 1.762217744627668457E-32, 66.00000000000000000 ) ) ;
#262 = COORDINATED_UNIVERSAL_TIME_OFFSET ( 1, 0, .AHEAD. ) ;
#263 = AXIS2_PLACEMENT_3D ( 'NONE', #186, #184, #290 ) ;
#264 = AXIS2_PLACEMENT_3D ( 'NONE', #191, #318, #321 ) ;
#265 = CARTESIAN_POINT ( 'NONE',  ( 3.612708057484671882E-16, -2.949999999999993960, -3.612708057484696534E-16 ) ) ;
#266 = CARTESIAN_POINT ( 'NONE',  ( 2.304377683636468267E-13, 2.349999999999989431, 66.00000000000000000 ) ) ;
#267 = DATE_AND_TIME ( #323, #106 ) ;
#268 = DIRECTION ( 'NONE',  ( 4.275831445896958607E-31, 1.000000000000000000, 1.224646799147353207E-16 ) ) ;
#269 = MECHANICAL_CONTEXT ( 'NONE', #240, 'mechanical' ) ;
#270 = CARTESIAN_POINT ( 'NONE',  ( 7.332110811570580046E-14, -2.571758278209441661E-15, 21.00000000000000000 ) ) ;
#271 = EDGE_CURVE ( 'NONE', #281, #166, #298, .T. ) ;
#272 = CIRCLE ( 'NONE', #276, 2.949999999999991296 ) ;
#273 = DIRECTION ( 'NONE',  ( 1.798245827342160317E-15, -0.8571673007021098911, 0.5150380749100582634 ) ) ;
#274 = COORDINATED_UNIVERSAL_TIME_OFFSET ( 1, 0, .AHEAD. ) ;
#275 = CARTESIAN_POINT ( 'NONE',  ( 7.332110811570580046E-14, 2.949999999999988631, 21.00000000000000000 ) ) ;
#276 = AXIS2_PLACEMENT_3D ( 'NONE', #297, #260, #67 ) ;
#277 = MANIFOLD_SOLID_BREP ( 'Corps-Déplacer/Copier1[2]', #244 ) ;
#278 = COORDINATED_UNIVERSAL_TIME_OFFSET ( 1, 0, .AHEAD. ) ;
#279 = AXIS2_PLACEMENT_3D ( 'NONE', #39, #168, #268 ) ;
#280 =( LENGTH_UNIT ( ) NAMED_UNIT ( * ) SI_UNIT ( .MILLI., .METRE. ) );
#281 = VERTEX_POINT ( 'NONE', #237 ) ;
#282 = DIRECTION ( 'NONE',  ( 4.275831445896958607E-31, 1.000000000000000000, 1.224646799147353207E-16 ) ) ;
#283 = DIRECTION ( 'NONE',  ( 0.0000000000000000000, 1.000000000000000000, 0.0000000000000000000 ) ) ;
#284 = VERTEX_POINT ( 'NONE', #238 ) ;
#285 = DIRECTION ( 'NONE',  ( -5.222860866134895816E-31, -1.000000000000000000, -1.470104640658316424E-16 ) ) ;
#286 = CC_DESIGN_DATE_AND_TIME_ASSIGNMENT ( #45, #142, ( #85 ) ) ;
#287 = ORIENTED_EDGE ( 'NONE', *, *, #217, .T. ) ;
#288 = APPROVAL_STATUS ( 'not_yet_approved' ) ;
#289 = EDGE_CURVE ( 'NONE', #284, #118, #112, .T. ) ;
#290 = DIRECTION ( 'NONE',  ( 0.0000000000000000000, 1.000000000000000000, 0.0000000000000000000 ) ) ;
#291 = DATE_AND_TIME ( #210, #206 ) ;
#292 = CC_DESIGN_PERSON_AND_ORGANIZATION_ASSIGNMENT ( #78, #173, ( #216 ) ) ;
#293 = CARTESIAN_POINT ( 'NONE',  ( 7.332110811570580046E-14, -2.571758278209441661E-15, 21.00000000000000000 ) ) ;
#294 = DIRECTION ( 'NONE',  ( -4.275831445896958607E-31, -1.000000000000000000, -1.224646799147353207E-16 ) ) ;
#295 = CIRCLE ( 'NONE', #194, 2.949999999999991296 ) ;
#296 = AXIS2_PLACEMENT_3D ( 'NONE', #261, #8, #335 ) ;
#297 = CARTESIAN_POINT ( 'NONE',  ( 7.332110811570580046E-14, -2.571758278209441661E-15, 21.00000000000000000 ) ) ;
#298 = LINE ( 'NONE', #266, #245 ) ;
#299 = DIRECTION ( 'NONE',  ( -3.491481338843133355E-15, 1.224646799147353207E-16, -1.000000000000000000 ) ) ;
#300 = ADVANCED_FACE ( 'NONE', ( #138 ), #170, .T. ) ;
#301 = AXIS2_PLACEMENT_3D ( 'NONE', #178, #334, #282 ) ;
#302 = CIRCLE ( 'NONE', #51, 2.349999999999997424 ) ;
#303 = APPROVAL ( #288, 'UNSPECIFIED' ) ;
#304 = PERSON_AND_ORGANIZATION ( #18, #256 ) ;
#305 = ORIENTED_EDGE ( 'NONE', *, *, #217, .F. ) ;
#306 = CALENDAR_DATE ( 2021, 3, 9 ) ;
#307 = VERTEX_POINT ( 'NONE', #172 ) ;
#308 = CIRCLE ( 'NONE', #317, 2.949999999999996625 ) ;
#309 = EDGE_LOOP ( 'NONE', ( #176, #225, #81, #7 ) ) ;
#310 = ORIENTED_EDGE ( 'NONE', *, *, #43, .F. ) ;
#311 = CARTESIAN_POINT ( 'NONE',  ( 2.283428795603408836E-13, -8.009190066423689102E-15, 65.40000000000000568 ) ) ;
#312 = CC_DESIGN_DATE_AND_TIME_ASSIGNMENT ( #291, #224, ( #42 ) ) ;
#313 = APPLICATION_PROTOCOL_DEFINITION ( 'international standard', 'config_control_design', 1994, #240 ) ;
#314 = ORIENTED_EDGE ( 'NONE', *, *, #43, .T. ) ;
#315 = ORIENTED_EDGE ( 'NONE', *, *, #28, .F. ) ;
#316 = DESIGN_CONTEXT ( 'detailed design', #257, 'design' ) ;
#317 = AXIS2_PLACEMENT_3D ( 'NONE', #311, #179, #283 ) ;
#318 = DIRECTION ( 'NONE',  ( -3.491481338843133355E-15, 1.224646799147353207E-16, -1.000000000000000000 ) ) ;
#319 = DIRECTION ( 'NONE',  ( 4.275831445896958607E-31, 1.000000000000000000, 1.224646799147353207E-16 ) ) ;
#320 = COORDINATED_UNIVERSAL_TIME_OFFSET ( 1, 0, .AHEAD. ) ;
#321 = DIRECTION ( 'NONE',  ( 5.222860866134895816E-31, 1.000000000000000000, 1.470104640658316424E-16 ) ) ;
#322 = CYLINDRICAL_SURFACE ( 'NONE', #279, 2.949999999999993960 ) ;
#323 = CALENDAR_DATE ( 2021, 3, 9 ) ;
#324 = APPROVAL_PERSON_ORGANIZATION ( #115, #95, #215 ) ;
#325 = ADVANCED_FACE ( 'NONE', ( #329 ), #59, .T. ) ;
#326 = DIRECTION ( 'NONE',  ( -3.491481338843133355E-15, 1.224646799147353207E-16, -1.000000000000000000 ) ) ;
#327 = VECTOR ( 'NONE', #41, 1000.000000000000000 ) ;
#328 = ADVANCED_FACE ( 'NONE', ( #146 ), #331, .T. ) ;
#329 = FACE_OUTER_BOUND ( 'NONE', #27, .T. ) ;
#330 = ORIENTED_EDGE ( 'NONE', *, *, #37, .T. ) ;
#331 = CONICAL_SURFACE ( 'NONE', #190, 2.349999999999997424, 0.7853981633974447263 ) ;
#332 = ADVANCED_FACE ( 'NONE', ( #336 ), #52, .T. ) ;
#333 = CONICAL_SURFACE ( 'NONE', #241, 2.949999999999989075, 1.029744258676649649 ) ;
#334 = DIRECTION ( 'NONE',  ( -3.491481338843133355E-15, 1.224646799147353207E-16, -1.000000000000000000 ) ) ;
#335 = DIRECTION ( 'NONE',  ( 4.275831445896958607E-31, 1.000000000000000000, 1.224646799147353207E-16 ) ) ;
#336 = FACE_OUTER_BOUND ( 'NONE', #201, .T. ) ;
#337 = CONICAL_SURFACE ( 'NONE', #76, 2.949999999999989075, 1.029744258676649649 ) ;
ENDSEC;
END-ISO-10303-21;
