ISO-10303-21;
HEADER;
FILE_DESCRIPTION (( 'STEP AP203' ),
    '1' );
FILE_NAME ('28591.step',
    '2021-09-03T07:21:46',
    ( '' ),
    ( '' ),
    'SwSTEP 2.0',
    'SolidWorks 2019',
    '' );
FILE_SCHEMA (( 'CONFIG_CONTROL_DESIGN' ));
ENDSEC;

DATA;
#1 = ORIENTED_EDGE ( 'NONE', *, *, #115, .T. ) ;
#2 = VECTOR ( 'NONE', #78, 1000.000000000000000 ) ;
#3 = DIRECTION ( 'NONE',  ( 0.0000000000000000000, 1.000000000000000000, 0.0000000000000000000 ) ) ;
#4 = CARTESIAN_POINT ( 'NONE',  ( 3.281992458512545606E-13, 5.499999999999995559, 94.00000000000000000 ) ) ;
#5 = VERTEX_POINT ( 'NONE', #316 ) ;
#6 = VERTEX_POINT ( 'NONE', #231 ) ;
#7 = DIRECTION ( 'NONE',  ( -3.491481338843133355E-15, 1.224646799147353207E-16, -1.000000000000000000 ) ) ;
#8 = DIRECTION ( 'NONE',  ( -3.491481338843133355E-15, 1.224646799147353207E-16, -1.000000000000000000 ) ) ;
#9 = PERSON_AND_ORGANIZATION ( #71, #300 ) ;
#10 = PLANE ( 'NONE',  #161 ) ;
#11 = FACE_OUTER_BOUND ( 'NONE', #119, .T. ) ;
#12 = COORDINATED_UNIVERSAL_TIME_OFFSET ( 1, 0, .AHEAD. ) ;
#13 = LOCAL_TIME ( 9, 21, 46.00000000000000000, #12 ) ;
#14 = DATE_AND_TIME ( #118, #92 ) ;
#15 = CIRCLE ( 'NONE', #60, 4.500000000000006217 ) ;
#16 = ORIENTED_EDGE ( 'NONE', *, *, #140, .T. ) ;
#17 = CC_DESIGN_DATE_AND_TIME_ASSIGNMENT ( #202, #117, ( #302 ) ) ;
#18 = EDGE_LOOP ( 'NONE', ( #228, #98 ) ) ;
#19 = APPROVAL_ROLE ( '' ) ;
#20 = EDGE_LOOP ( 'NONE', ( #263, #251, #205 ) ) ;
#21 = ORIENTED_EDGE ( 'NONE', *, *, #275, .T. ) ;
#22 = LOCAL_TIME ( 9, 21, 46.00000000000000000, #230 ) ;
#23 = CARTESIAN_POINT ( 'NONE',  ( 3.316907271900976814E-13, -1.163414459189985643E-14, 95.00000000000000000 ) ) ;
#24 = ORIENTED_EDGE ( 'NONE', *, *, #261, .T. ) ;
#25 = CYLINDRICAL_SURFACE ( 'NONE', #331, 5.499999999999998224 ) ;
#26 = ADVANCED_FACE ( 'NONE', ( #49 ), #292, .T. ) ;
#27 = CARTESIAN_POINT ( 'NONE',  ( 1.152188841818234133E-13, -4.041334437186266200E-15, 33.00000000000000000 ) ) ;
#28 = VECTOR ( 'NONE', #266, 1000.000000000000000 ) ;
#29 = VECTOR ( 'NONE', #141, 1000.000000000000114 ) ;
#30 = CALENDAR_DATE ( 2021, 3, 9 ) ;
#31 = CYLINDRICAL_SURFACE ( 'NONE', #190, 5.500000000000003553 ) ;
#32 = DIRECTION ( 'NONE',  ( 4.275831445896958607E-31, 1.000000000000000000, 1.224646799147353207E-16 ) ) ;
#33 = DIRECTION ( 'NONE',  ( 3.491481338843133355E-15, -1.224646799147353207E-16, 1.000000000000000000 ) ) ;
#34 = MECHANICAL_CONTEXT ( 'NONE', #220, 'mechanical' ) ;
#35 = FACE_OUTER_BOUND ( 'NONE', #18, .T. ) ;
#36 = CARTESIAN_POINT ( 'NONE',  ( 1.152188841818234133E-13, 5.499999999999995559, 33.00000000000000000 ) ) ;
#37 = APPROVAL_PERSON_ORGANIZATION ( #93, #247, #274 ) ;
#38 = EDGE_CURVE ( 'NONE', #313, #336, #303, .T. ) ;
#39 = ORIENTED_EDGE ( 'NONE', *, *, #261, .F. ) ;
#40 = APPROVAL ( #125, 'UNSPECIFIED' ) ;
#41 = CARTESIAN_POINT ( 'NONE',  ( 2.351707295243326270E-30, 5.499999999999998224, 6.735557395310440051E-16 ) ) ;
#42 = CLOSED_SHELL ( 'NONE', ( #26, #334, #145, #95, #332, #176 ) ) ;
#43 = EDGE_CURVE ( 'NONE', #6, #152, #294, .T. ) ;
#44 = ORIENTED_EDGE ( 'NONE', *, *, #140, .F. ) ;
#45 = CARTESIAN_POINT ( 'NONE',  ( 3.316907271900976814E-13, 4.499999999999995559, 95.00000000000000000 ) ) ;
#46 = ORIENTED_EDGE ( 'NONE', *, *, #43, .F. ) ;
#47 = VERTEX_POINT ( 'NONE', #157 ) ;
#48 = DIRECTION ( 'NONE',  ( -3.491481338843133355E-15, 1.224646799147353207E-16, -1.000000000000000000 ) ) ;
#49 = FACE_OUTER_BOUND ( 'NONE', #256, .T. ) ;
#50 = AXIS2_PLACEMENT_3D ( 'NONE', #252, #171, #278 ) ;
#51 = EDGE_LOOP ( 'NONE', ( #16, #1 ) ) ;
#52 = DIRECTION ( 'NONE',  ( 1.798245827342159528E-15, -0.8571673007021100021, 0.5150380749100580413 ) ) ;
#53 = DATE_AND_TIME ( #222, #13 ) ;
#54 = DIRECTION ( 'NONE',  ( -3.491481338843133355E-15, 1.224646799147353207E-16, -1.000000000000000000 ) ) ;
#55 = PLANE ( 'NONE',  #249 ) ;
#56 =( LENGTH_UNIT ( ) NAMED_UNIT ( * ) SI_UNIT ( .MILLI., .METRE. ) );
#57 = ADVANCED_FACE ( 'NONE', ( #149 ), #317, .T. ) ;
#58 = APPLICATION_CONTEXT ( 'configuration controlled 3d designs of mechanical parts and assemblies' ) ;
#59 = CARTESIAN_POINT ( 'NONE',  ( 3.316907271900976814E-13, -1.163414459189985643E-14, 95.00000000000000000 ) ) ;
#60 = AXIS2_PLACEMENT_3D ( 'NONE', #59, #163, #116 ) ;
#61 = CARTESIAN_POINT ( 'NONE',  ( 6.735557395310424274E-16, -5.500000000000003553, -6.735557395310468647E-16 ) ) ;
#62 = CONICAL_SURFACE ( 'NONE', #293, 4.500000000000006217, 0.7853981633974479459 ) ;
#63 = PERSON_AND_ORGANIZATION_ROLE ( 'classification_officer' ) ;
#64 = DIRECTION ( 'NONE',  ( -3.491481338843133355E-15, 1.224646799147353207E-16, -1.000000000000000000 ) ) ;
#65 = DIRECTION ( 'NONE',  ( 1.000000000000000000, 0.0000000000000000000, 0.0000000000000000000 ) ) ;
#66 = CIRCLE ( 'NONE', #260, 5.499999999999995559 ) ;
#67 = APPROVAL_STATUS ( 'not_yet_approved' ) ;
#68 = ORIENTED_EDGE ( 'NONE', *, *, #216, .T. ) ;
#69 =( GEOMETRIC_REPRESENTATION_CONTEXT ( 3 ) GLOBAL_UNCERTAINTY_ASSIGNED_CONTEXT ( ( #258 ) ) GLOBAL_UNIT_ASSIGNED_CONTEXT ( ( #56, #185, #264 ) ) REPRESENTATION_CONTEXT ( 'NONE', 'WORKASPACE' ) );
#70 = PERSON_AND_ORGANIZATION_ROLE ( 'design_owner' ) ;
#71 = PERSON ( 'UNSPECIFIED', 'UNSPECIFIED', 'UNSPECIFIED', ('UNSPECIFIED'), ('UNSPECIFIED'), ('UNSPECIFIED') ) ;
#72 = PERSON_AND_ORGANIZATION ( #71, #300 ) ;
#73 = DIRECTION ( 'NONE',  ( -3.491481338843133355E-15, 1.224646799147353207E-16, -1.000000000000000000 ) ) ;
#74 = AXIS2_PLACEMENT_3D ( 'NONE', #77, #178, #3 ) ;
#75 = VECTOR ( 'NONE', #48, 1000.000000000000000 ) ;
#76 = ORIENTED_EDGE ( 'NONE', *, *, #150, .T. ) ;
#77 = CARTESIAN_POINT ( 'NONE',  ( 3.316907271900976814E-13, -1.163414459189985643E-14, 95.00000000000000000 ) ) ;
#78 = DIRECTION ( 'NONE',  ( -3.491481338843133355E-15, 1.224646799147353207E-16, -1.000000000000000000 ) ) ;
#79 = CLOSED_SHELL ( 'NONE', ( #240, #57, #167, #328, #159 ) ) ;
#80 = CC_DESIGN_APPROVAL ( #247, ( #162 ) ) ;
#81 = EDGE_CURVE ( 'NONE', #227, #313, #319, .T. ) ;
#82 = CARTESIAN_POINT ( 'NONE',  ( 2.223826207560699798E-13, -5.500000000000004441, 33.00000000000000000 ) ) ;
#83 = PERSON_AND_ORGANIZATION ( #71, #300 ) ;
#84 = CARTESIAN_POINT ( 'NONE',  ( 1.153841501219264555E-14, -4.047131186041934620E-16, 3.304733404651614581 ) ) ;
#85 = FACE_OUTER_BOUND ( 'NONE', #155, .T. ) ;
#86 = APPROVAL_STATUS ( 'not_yet_approved' ) ;
#87 = DIRECTION ( 'NONE',  ( 3.491481338843133355E-15, -1.224646799147353207E-16, 1.000000000000000000 ) ) ;
#88 = FACE_OUTER_BOUND ( 'NONE', #200, .T. ) ;
#89 = DATE_AND_TIME ( #30, #195 ) ;
#90 = ORIENTED_EDGE ( 'NONE', *, *, #223, .F. ) ;
#91 = DIRECTION ( 'NONE',  ( 3.491481338843133355E-15, -1.224646799147353207E-16, 1.000000000000000000 ) ) ;
#92 = LOCAL_TIME ( 9, 21, 46.00000000000000000, #219 ) ;
#93 = PERSON_AND_ORGANIZATION ( #71, #300 ) ;
#94 = DATE_TIME_ROLE ( 'classification_date' ) ;
#95 = ADVANCED_FACE ( 'NONE', ( #109 ), #31, .T. ) ;
#96 = PERSON_AND_ORGANIZATION ( #71, #300 ) ;
#97 = CIRCLE ( 'NONE', #175, 5.499999999999995559 ) ;
#98 = ORIENTED_EDGE ( 'NONE', *, *, #150, .F. ) ;
#99 = EDGE_CURVE ( 'NONE', #152, #5, #97, .T. ) ;
#100 = ORIENTED_EDGE ( 'NONE', *, *, #197, .F. ) ;
#101 = CIRCLE ( 'NONE', #212, 5.500000000000000000 ) ;
#102 = DIRECTION ( 'NONE',  ( 4.275831445896958607E-31, 1.000000000000000000, 1.224646799147353207E-16 ) ) ;
#103 = EDGE_CURVE ( 'NONE', #5, #152, #66, .T. ) ;
#104 = CARTESIAN_POINT ( 'NONE',  ( 3.322418182497139517E-13, -4.500000000000017764, 95.00000000000000000 ) ) ;
#105 = EDGE_CURVE ( 'NONE', #313, #204, #131, .T. ) ;
#106 = EDGE_LOOP ( 'NONE', ( #90, #24, #68, #253 ) ) ;
#107 = CARTESIAN_POINT ( 'NONE',  ( 1.152188841818234133E-13, -4.041334437186266200E-15, 33.00000000000000000 ) ) ;
#108 = AXIS2_PLACEMENT_3D ( 'NONE', #210, #7, #136 ) ;
#109 = FACE_OUTER_BOUND ( 'NONE', #147, .T. ) ;
#110 = FACE_OUTER_BOUND ( 'NONE', #51, .T. ) ;
#111 = PERSON_AND_ORGANIZATION_ROLE ( 'creator' ) ;
#112 = CARTESIAN_POINT ( 'NONE',  ( 0.0000000000000000000, 0.0000000000000000000, 0.0000000000000000000 ) ) ;
#113 = CIRCLE ( 'NONE', #154, 5.500000000000000000 ) ;
#114 = CIRCLE ( 'NONE', #50, 5.500000000000006217 ) ;
#115 = EDGE_CURVE ( 'NONE', #238, #204, #113, .T. ) ;
#116 = DIRECTION ( 'NONE',  ( 0.0000000000000000000, 1.000000000000000000, 0.0000000000000000000 ) ) ;
#117 = DATE_TIME_ROLE ( 'creation_date' ) ;
#118 = CALENDAR_DATE ( 2021, 3, 9 ) ;
#119 = EDGE_LOOP ( 'NONE', ( #290, #39 ) ) ;
#120 = AXIS2_PLACEMENT_3D ( 'NONE', #215, #289, #32 ) ;
#121 = CC_DESIGN_PERSON_AND_ORGANIZATION_ASSIGNMENT ( #169, #63, ( #229 ) ) ;
#122 = ORIENTED_EDGE ( 'NONE', *, *, #81, .T. ) ;
#123 = AXIS2_PLACEMENT_3D ( 'NONE', #254, #128, #184 ) ;
#124 = AXIS2_PLACEMENT_3D ( 'NONE', #107, #241, #315 ) ;
#125 = APPROVAL_STATUS ( 'not_yet_approved' ) ;
#126 = ORIENTED_EDGE ( 'NONE', *, *, #81, .F. ) ;
#127 = DESIGN_CONTEXT ( 'detailed design', #58, 'design' ) ;
#128 = DIRECTION ( 'NONE',  ( -3.491481338843133355E-15, 1.224646799147353207E-16, -1.000000000000000000 ) ) ;
#129 = DIRECTION ( 'NONE',  ( 0.0000000000000000000, 1.000000000000000000, 0.0000000000000000000 ) ) ;
#130 = AXIS2_PLACEMENT_3D ( 'NONE', #135, #91, #324 ) ;
#131 = LINE ( 'NONE', #160, #28 ) ;
#132 = APPROVAL ( #86, 'UNSPECIFIED' ) ;
#133 = FACE_OUTER_BOUND ( 'NONE', #106, .T. ) ;
#134 = DIRECTION ( 'NONE',  ( 0.0000000000000000000, 0.0000000000000000000, 1.000000000000000000 ) ) ;
#135 = CARTESIAN_POINT ( 'NONE',  ( 1.153841501219264555E-14, -4.047131186041934620E-16, 3.304733404651614581 ) ) ;
#136 = DIRECTION ( 'NONE',  ( 4.275831445896958607E-31, 1.000000000000000000, 1.224646799147352961E-16 ) ) ;
#137 = DIRECTION ( 'NONE',  ( -5.602705292762872156E-31, -1.000000000000000000, -1.577021341797098546E-16 ) ) ;
#138 = APPROVAL_DATE_TIME ( #89, #247 ) ;
#139 = PERSON_AND_ORGANIZATION ( #71, #300 ) ;
#140 = EDGE_CURVE ( 'NONE', #204, #238, #268, .T. ) ;
#141 = DIRECTION ( 'NONE',  ( 1.903218546456021928E-15, 0.8571673007021098911, 0.5150380749100583744 ) ) ;
#142 = AXIS2_PLACEMENT_3D ( 'NONE', #192, #306, #102 ) ;
#143 = AXIS2_PLACEMENT_3D ( 'NONE', #277, #33, #137 ) ;
#144 = PRODUCT ( '28591', '28591', '', ( #34 ) ) ;
#145 = ADVANCED_FACE ( 'NONE', ( #110 ), #10, .F. ) ;
#146 = ORIENTED_EDGE ( 'NONE', *, *, #38, .F. ) ;
#147 = EDGE_LOOP ( 'NONE', ( #151, #288, #165, #198 ) ) ;
#148 = VERTEX_POINT ( 'NONE', #299 ) ;
#149 = FACE_OUTER_BOUND ( 'NONE', #208, .T. ) ;
#150 = EDGE_CURVE ( 'NONE', #47, #227, #15, .T. ) ;
#151 = ORIENTED_EDGE ( 'NONE', *, *, #235, .F. ) ;
#152 = VERTEX_POINT ( 'NONE', #193 ) ;
#153 = DIRECTION ( 'NONE',  ( -3.491481338843133355E-15, 1.224646799147353207E-16, -1.000000000000000000 ) ) ;
#154 = AXIS2_PLACEMENT_3D ( 'NONE', #297, #54, #301 ) ;
#155 = EDGE_LOOP ( 'NONE', ( #248, #286, #44, #333 ) ) ;
#156 = FACE_OUTER_BOUND ( 'NONE', #307, .T. ) ;
#157 = CARTESIAN_POINT ( 'NONE',  ( 3.305573099202497210E-13, -4.500000000000017764, 95.00000000000000000 ) ) ;
#158 = DIRECTION ( 'NONE',  ( 4.275831445896958607E-31, 1.000000000000000000, 1.224646799147353207E-16 ) ) ;
#159 = ADVANCED_FACE ( 'NONE', ( #11 ), #55, .T. ) ;
#160 = CARTESIAN_POINT ( 'NONE',  ( 2.351707295243328722E-30, 5.500000000000003553, 6.735557395310445967E-16 ) ) ;
#161 = AXIS2_PLACEMENT_3D ( 'NONE', #214, #87, #188 ) ;
#162 = PRODUCT_DEFINITION_FORMATION_WITH_SPECIFIED_SOURCE ( 'ANY', '', #144, .NOT_KNOWN. ) ;
#163 = DIRECTION ( 'NONE',  ( -3.491481338843133355E-15, 1.224646799147353207E-16, -1.000000000000000000 ) ) ;
#164 = MANIFOLD_SOLID_BREP ( 'Corps-Déplacer/Copier1[1]', #42 ) ;
#165 = ORIENTED_EDGE ( 'NONE', *, *, #105, .T. ) ;
#166 = DIRECTION ( 'NONE',  ( 4.275831445896958607E-31, 1.000000000000000000, 1.224646799147352961E-16 ) ) ;
#167 = ADVANCED_FACE ( 'NONE', ( #272 ), #337, .T. ) ;
#168 = DIRECTION ( 'NONE',  ( -4.275831445896958607E-31, -1.000000000000000000, -1.224646799147353207E-16 ) ) ;
#169 = PERSON_AND_ORGANIZATION ( #71, #300 ) ;
#170 = APPROVAL_PERSON_ORGANIZATION ( #83, #40, #19 ) ;
#171 = DIRECTION ( 'NONE',  ( -3.491481338843133355E-15, 1.224646799147353207E-16, -1.000000000000000000 ) ) ;
#172 = PRODUCT_RELATED_PRODUCT_CATEGORY ( 'detail', '', ( #144 ) ) ;
#173 = CARTESIAN_POINT ( 'NONE',  ( 1.221197075172369202E-14, 5.499999999999995559, 3.304733404651615469 ) ) ;
#174 = CARTESIAN_POINT ( 'NONE',  ( 1.152188841818234133E-13, 5.499999999999995559, 33.00000000000000000 ) ) ;
#175 = AXIS2_PLACEMENT_3D ( 'NONE', #84, #239, #186 ) ;
#176 = ADVANCED_FACE ( 'NONE', ( #35 ), #245, .F. ) ;
#177 = PERSON_AND_ORGANIZATION_ROLE ( 'creator' ) ;
#178 = DIRECTION ( 'NONE',  ( -3.491481338843133355E-15, 1.224646799147353207E-16, -1.000000000000000000 ) ) ;
#179 = CARTESIAN_POINT ( 'NONE',  ( 6.735557395310417371E-16, -5.499999999999998224, -6.735557395310463717E-16 ) ) ;
#180 = CC_DESIGN_PERSON_AND_ORGANIZATION_ASSIGNMENT ( #9, #111, ( #162 ) ) ;
#181 = ORIENTED_EDGE ( 'NONE', *, *, #279, .T. ) ;
#182 = DIRECTION ( 'NONE',  ( 0.0000000000000000000, 1.000000000000000000, 0.0000000000000000000 ) ) ;
#183 = APPROVAL_PERSON_ORGANIZATION ( #139, #132, #298 ) ;
#184 = DIRECTION ( 'NONE',  ( 0.0000000000000000000, 1.000000000000000000, 0.0000000000000000000 ) ) ;
#185 =( NAMED_UNIT ( * ) PLANE_ANGLE_UNIT ( ) SI_UNIT ( $, .RADIAN. ) );
#186 = DIRECTION ( 'NONE',  ( 5.602705292762872156E-31, 1.000000000000000000, 1.577021341797098546E-16 ) ) ;
#187 = DIRECTION ( 'NONE',  ( -3.491481338843133355E-15, 1.224646799147353207E-16, -1.000000000000000000 ) ) ;
#188 = DIRECTION ( 'NONE',  ( -4.275831445896958607E-31, -1.000000000000000000, -1.224646799147353207E-16 ) ) ;
#189 = CARTESIAN_POINT ( 'NONE',  ( 1.152188841818234133E-13, 4.124339402320101853E-32, 33.00000000000000000 ) ) ;
#190 = AXIS2_PLACEMENT_3D ( 'NONE', #112, #191, #166 ) ;
#191 = DIRECTION ( 'NONE',  ( -3.491481338843133355E-15, 1.224646799147353207E-16, -1.000000000000000000 ) ) ;
#192 = CARTESIAN_POINT ( 'NONE',  ( 3.316907271900976814E-13, 3.374459510989167575E-32, 95.00000000000000000 ) ) ;
#193 = CARTESIAN_POINT ( 'NONE',  ( 1.153841501219264239E-14, -5.499999999999995559, 3.304733404651613693 ) ) ;
#194 = VECTOR ( 'NONE', #270, 999.9999999999998863 ) ;
#195 = LOCAL_TIME ( 9, 21, 46.00000000000000000, #221 ) ;
#196 = CC_DESIGN_DATE_AND_TIME_ASSIGNMENT ( #14, #94, ( #229 ) ) ;
#197 = EDGE_CURVE ( 'NONE', #336, #313, #114, .T. ) ;
#198 = ORIENTED_EDGE ( 'NONE', *, *, #115, .F. ) ;
#199 = LINE ( 'NONE', #173, #29 ) ;
#200 = EDGE_LOOP ( 'NONE', ( #314, #310, #312, #330 ) ) ;
#201 = VECTOR ( 'NONE', #73, 1000.000000000000000 ) ;
#202 = DATE_AND_TIME ( #335, #246 ) ;
#203 = PRODUCT_DEFINITION_SHAPE ( 'NONE', 'NONE',  #302 ) ;
#204 = VERTEX_POINT ( 'NONE', #36 ) ;
#205 = ORIENTED_EDGE ( 'NONE', *, *, #99, .T. ) ;
#206 = ADVANCED_BREP_SHAPE_REPRESENTATION ( '28591', ( #164, #282, #304 ), #69 ) ;
#207 = DIRECTION ( 'NONE',  ( 0.0000000000000000000, 1.000000000000000000, 0.0000000000000000000 ) ) ;
#208 = EDGE_LOOP ( 'NONE', ( #46, #257, #236 ) ) ;
#209 = EDGE_CURVE ( 'NONE', #6, #5, #199, .T. ) ;
#210 = CARTESIAN_POINT ( 'NONE',  ( 0.0000000000000000000, 0.0000000000000000000, 0.0000000000000000000 ) ) ;
#211 = VECTOR ( 'NONE', #52, 1000.000000000000000 ) ;
#212 = AXIS2_PLACEMENT_3D ( 'NONE', #320, #153, #182 ) ;
#213 = CARTESIAN_POINT ( 'NONE',  ( 3.316907271900976814E-13, 4.499999999999995559, 95.00000000000000000 ) ) ;
#214 = CARTESIAN_POINT ( 'NONE',  ( 1.152188841818234133E-13, 4.124339402320101853E-32, 33.00000000000000000 ) ) ;
#215 = CARTESIAN_POINT ( 'NONE',  ( 0.0000000000000000000, 0.0000000000000000000, 0.0000000000000000000 ) ) ;
#216 = EDGE_CURVE ( 'NONE', #225, #5, #283, .T. ) ;
#217 = PERSON_AND_ORGANIZATION_ROLE ( 'design_supplier' ) ;
#218 = DIRECTION ( 'NONE',  ( 5.602705292762872156E-31, 1.000000000000000000, 1.577021341797098546E-16 ) ) ;
#219 = COORDINATED_UNIVERSAL_TIME_OFFSET ( 1, 0, .AHEAD. ) ;
#220 = APPLICATION_CONTEXT ( 'configuration controlled 3d designs of mechanical parts and assemblies' ) ;
#221 = COORDINATED_UNIVERSAL_TIME_OFFSET ( 1, 0, .AHEAD. ) ;
#222 = CALENDAR_DATE ( 2021, 3, 9 ) ;
#223 = EDGE_CURVE ( 'NONE', #148, #152, #308, .T. ) ;
#224 = CC_DESIGN_APPROVAL ( #40, ( #302 ) ) ;
#225 = VERTEX_POINT ( 'NONE', #174 ) ;
#226 = APPROVAL_DATE_TIME ( #232, #40 ) ;
#227 = VERTEX_POINT ( 'NONE', #45 ) ;
#228 = ORIENTED_EDGE ( 'NONE', *, *, #279, .F. ) ;
#229 = SECURITY_CLASSIFICATION ( '', '', #276 ) ;
#230 = COORDINATED_UNIVERSAL_TIME_OFFSET ( 1, 0, .AHEAD. ) ;
#231 = CARTESIAN_POINT ( 'NONE',  ( 0.0000000000000000000, 0.0000000000000000000, 0.0000000000000000000 ) ) ;
#232 = DATE_AND_TIME ( #262, #22 ) ;
#233 = ORIENTED_EDGE ( 'NONE', *, *, #275, .F. ) ;
#234 = CYLINDRICAL_SURFACE ( 'NONE', #108, 5.500000000000003553 ) ;
#235 = EDGE_CURVE ( 'NONE', #336, #238, #255, .T. ) ;
#236 = ORIENTED_EDGE ( 'NONE', *, *, #103, .T. ) ;
#237 = DIRECTION ( 'NONE',  ( -3.491481338843133355E-15, 1.224646799147353207E-16, -1.000000000000000000 ) ) ;
#238 = VERTEX_POINT ( 'NONE', #82 ) ;
#239 = DIRECTION ( 'NONE',  ( -3.491481338843133355E-15, 1.224646799147353207E-16, -1.000000000000000000 ) ) ;
#240 = ADVANCED_FACE ( 'NONE', ( #88 ), #271, .T. ) ;
#241 = DIRECTION ( 'NONE',  ( -3.491481338843133355E-15, 1.224646799147353207E-16, -1.000000000000000000 ) ) ;
#242 = DIRECTION ( 'NONE',  ( 0.0000000000000000000, 1.000000000000000000, 0.0000000000000000000 ) ) ;
#243 = CARTESIAN_POINT ( 'NONE',  ( 3.316907271900976814E-13, -1.163414459189985643E-14, 95.00000000000000000 ) ) ;
#244 = CARTESIAN_POINT ( 'NONE',  ( 0.0000000000000000000, 0.0000000000000000000, 0.0000000000000000000 ) ) ;
#245 = PLANE ( 'NONE',  #142 ) ;
#246 = LOCAL_TIME ( 9, 21, 46.00000000000000000, #285 ) ;
#247 = APPROVAL ( #67, 'UNSPECIFIED' ) ;
#248 = ORIENTED_EDGE ( 'NONE', *, *, #38, .T. ) ;
#249 = AXIS2_PLACEMENT_3D ( 'NONE', #189, #325, #168 ) ;
#250 = CIRCLE ( 'NONE', #269, 4.500000000000006217 ) ;
#251 = ORIENTED_EDGE ( 'NONE', *, *, #43, .T. ) ;
#252 = CARTESIAN_POINT ( 'NONE',  ( 3.281992458512545606E-13, -1.151167991198512128E-14, 94.00000000000000000 ) ) ;
#253 = ORIENTED_EDGE ( 'NONE', *, *, #99, .F. ) ;
#254 = CARTESIAN_POINT ( 'NONE',  ( 3.281992458512545606E-13, -1.151167991198512128E-14, 94.00000000000000000 ) ) ;
#255 = LINE ( 'NONE', #61, #75 ) ;
#256 = EDGE_LOOP ( 'NONE', ( #181, #21, #146, #126 ) ) ;
#257 = ORIENTED_EDGE ( 'NONE', *, *, #209, .T. ) ;
#258 = UNCERTAINTY_MEASURE_WITH_UNIT (LENGTH_MEASURE( 1.000000000000000082E-05 ), #56, 'distance_accuracy_value', 'NONE');
#259 = LINE ( 'NONE', #104, #284 ) ;
#260 = AXIS2_PLACEMENT_3D ( 'NONE', #322, #64, #218 ) ;
#261 = EDGE_CURVE ( 'NONE', #148, #225, #101, .T. ) ;
#262 = CALENDAR_DATE ( 2021, 3, 9 ) ;
#263 = ORIENTED_EDGE ( 'NONE', *, *, #209, .F. ) ;
#264 =( NAMED_UNIT ( * ) SI_UNIT ( $, .STERADIAN. ) SOLID_ANGLE_UNIT ( ) );
#265 = APPROVAL_DATE_TIME ( #53, #132 ) ;
#266 = DIRECTION ( 'NONE',  ( -3.491481338843133355E-15, 1.224646799147353207E-16, -1.000000000000000000 ) ) ;
#267 = DIRECTION ( 'NONE',  ( -2.382254525458717469E-15, -0.7071067811865471286, -0.7071067811865479058 ) ) ;
#268 = CIRCLE ( 'NONE', #309, 5.500000000000000000 ) ;
#269 = AXIS2_PLACEMENT_3D ( 'NONE', #243, #323, #207 ) ;
#270 = DIRECTION ( 'NONE',  ( -2.468850131082266527E-15, 0.7071067811865473507, -0.7071067811865477948 ) ) ;
#271 = CYLINDRICAL_SURFACE ( 'NONE', #120, 5.499999999999998224 ) ;
#272 = FACE_OUTER_BOUND ( 'NONE', #20, .T. ) ;
#273 = APPLICATION_PROTOCOL_DEFINITION ( 'international standard', 'config_control_design', 1994, #220 ) ;
#274 = APPROVAL_ROLE ( '' ) ;
#275 = EDGE_CURVE ( 'NONE', #47, #336, #259, .T. ) ;
#276 = SECURITY_CLASSIFICATION_LEVEL ( 'unclassified' ) ;
#277 = CARTESIAN_POINT ( 'NONE',  ( 1.153841501219264555E-14, -4.047131186041934620E-16, 3.304733404651614581 ) ) ;
#278 = DIRECTION ( 'NONE',  ( 0.0000000000000000000, 1.000000000000000000, 0.0000000000000000000 ) ) ;
#279 = EDGE_CURVE ( 'NONE', #227, #47, #250, .T. ) ;
#280 = CC_DESIGN_APPROVAL ( #132, ( #229 ) ) ;
#281 = APPLICATION_PROTOCOL_DEFINITION ( 'international standard', 'config_control_design', 1994, #58 ) ;
#282 = MANIFOLD_SOLID_BREP ( 'Corps-Déplacer/Copier1[2]', #79 ) ;
#283 = LINE ( 'NONE', #41, #2 ) ;
#284 = VECTOR ( 'NONE', #267, 1000.000000000000000 ) ;
#285 = COORDINATED_UNIVERSAL_TIME_OFFSET ( 1, 0, .AHEAD. ) ;
#286 = ORIENTED_EDGE ( 'NONE', *, *, #235, .T. ) ;
#287 = CARTESIAN_POINT ( 'NONE',  ( 1.153841501219264239E-14, -5.499999999999995559, 3.304733404651613693 ) ) ;
#288 = ORIENTED_EDGE ( 'NONE', *, *, #197, .T. ) ;
#289 = DIRECTION ( 'NONE',  ( -3.491481338843133355E-15, 1.224646799147353207E-16, -1.000000000000000000 ) ) ;
#290 = ORIENTED_EDGE ( 'NONE', *, *, #295, .F. ) ;
#291 = CARTESIAN_POINT ( 'NONE',  ( 0.0000000000000000000, 0.0000000000000000000, 0.0000000000000000000 ) ) ;
#292 = CONICAL_SURFACE ( 'NONE', #74, 4.500000000000006217, 0.7853981633974479459 ) ;
#293 = AXIS2_PLACEMENT_3D ( 'NONE', #23, #187, #129 ) ;
#294 = LINE ( 'NONE', #287, #211 ) ;
#295 = EDGE_CURVE ( 'NONE', #225, #148, #311, .T. ) ;
#296 = PERSON_AND_ORGANIZATION ( #71, #300 ) ;
#297 = CARTESIAN_POINT ( 'NONE',  ( 1.152188841818234133E-13, -4.041334437186266200E-15, 33.00000000000000000 ) ) ;
#298 = APPROVAL_ROLE ( '' ) ;
#299 = CARTESIAN_POINT ( 'NONE',  ( 6.405220533653903332E-14, -5.500000000000005329, 33.00000000000000000 ) ) ;
#300 = ORGANIZATION ( 'UNSPECIFIED', 'UNSPECIFIED', '' ) ;
#301 = DIRECTION ( 'NONE',  ( 0.0000000000000000000, 1.000000000000000000, 0.0000000000000000000 ) ) ;
#302 = PRODUCT_DEFINITION ( 'UNKNOWN', '', #162, #127 ) ;
#303 = CIRCLE ( 'NONE', #123, 5.500000000000006217 ) ;
#304 = AXIS2_PLACEMENT_3D ( 'NONE', #244, #134, #65 ) ;
#305 = CC_DESIGN_PERSON_AND_ORGANIZATION_ASSIGNMENT ( #72, #70, ( #144 ) ) ;
#306 = DIRECTION ( 'NONE',  ( -3.491481338843133355E-15, 1.224646799147353207E-16, -1.000000000000000000 ) ) ;
#307 = EDGE_LOOP ( 'NONE', ( #233, #76, #122, #100 ) ) ;
#308 = LINE ( 'NONE', #179, #201 ) ;
#309 = AXIS2_PLACEMENT_3D ( 'NONE', #27, #8, #242 ) ;
#310 = ORIENTED_EDGE ( 'NONE', *, *, #223, .T. ) ;
#311 = CIRCLE ( 'NONE', #124, 5.500000000000000000 ) ;
#312 = ORIENTED_EDGE ( 'NONE', *, *, #103, .F. ) ;
#313 = VERTEX_POINT ( 'NONE', #4 ) ;
#314 = ORIENTED_EDGE ( 'NONE', *, *, #295, .T. ) ;
#315 = DIRECTION ( 'NONE',  ( 0.0000000000000000000, 1.000000000000000000, 0.0000000000000000000 ) ) ;
#316 = CARTESIAN_POINT ( 'NONE',  ( 1.221197075172369202E-14, 5.499999999999995559, 3.304733404651615469 ) ) ;
#317 = CONICAL_SURFACE ( 'NONE', #130, 5.499999999999995559, 1.029744258676649871 ) ;
#318 = CARTESIAN_POINT ( 'NONE',  ( 2.223826207560698788E-13, -5.500000000000017764, 94.00000000000000000 ) ) ;
#319 = LINE ( 'NONE', #213, #194 ) ;
#320 = CARTESIAN_POINT ( 'NONE',  ( 1.152188841818234133E-13, -4.041334437186266200E-15, 33.00000000000000000 ) ) ;
#321 = CC_DESIGN_PERSON_AND_ORGANIZATION_ASSIGNMENT ( #96, #217, ( #162 ) ) ;
#322 = CARTESIAN_POINT ( 'NONE',  ( 1.153841501219264555E-14, -4.047131186041934620E-16, 3.304733404651614581 ) ) ;
#323 = DIRECTION ( 'NONE',  ( -3.491481338843133355E-15, 1.224646799147353207E-16, -1.000000000000000000 ) ) ;
#324 = DIRECTION ( 'NONE',  ( -5.602705292762872156E-31, -1.000000000000000000, -1.577021341797098546E-16 ) ) ;
#325 = DIRECTION ( 'NONE',  ( 3.491481338843133355E-15, -1.224646799147353207E-16, 1.000000000000000000 ) ) ;
#326 = CC_DESIGN_SECURITY_CLASSIFICATION ( #229, ( #162 ) ) ;
#327 = SHAPE_DEFINITION_REPRESENTATION ( #203, #206 ) ;
#328 = ADVANCED_FACE ( 'NONE', ( #133 ), #25, .T. ) ;
#329 = CC_DESIGN_PERSON_AND_ORGANIZATION_ASSIGNMENT ( #296, #177, ( #302 ) ) ;
#330 = ORIENTED_EDGE ( 'NONE', *, *, #216, .F. ) ;
#331 = AXIS2_PLACEMENT_3D ( 'NONE', #291, #237, #158 ) ;
#332 = ADVANCED_FACE ( 'NONE', ( #156 ), #62, .T. ) ;
#333 = ORIENTED_EDGE ( 'NONE', *, *, #105, .F. ) ;
#334 = ADVANCED_FACE ( 'NONE', ( #85 ), #234, .T. ) ;
#335 = CALENDAR_DATE ( 2021, 3, 9 ) ;
#336 = VERTEX_POINT ( 'NONE', #318 ) ;
#337 = CONICAL_SURFACE ( 'NONE', #143, 5.499999999999995559, 1.029744258676649871 ) ;
ENDSEC;
END-ISO-10303-21;
