ISO-10303-21;
HEADER;
FILE_DESCRIPTION (( 'STEP AP203' ),
    '1' );
FILE_NAME ('28072.step',
    '2021-11-22T09:04:28',
    ( '' ),
    ( '' ),
    'SwSTEP 2.0',
    'SolidWorks 2019',
    '' );
FILE_SCHEMA (( 'CONFIG_CONTROL_DESIGN' ));
ENDSEC;

DATA;
#1 =( LENGTH_UNIT ( ) NAMED_UNIT ( * ) SI_UNIT ( .MILLI., .METRE. ) );
#2 = CYLINDRICAL_SURFACE ( 'NONE', #6, 5.000000000000000888 ) ;
#3 = AXIS2_PLACEMENT_3D ( 'NONE', #172, #142, #168 ) ;
#4 = EDGE_LOOP ( 'NONE', ( #107 ) ) ;
#5 = CC_DESIGN_DATE_AND_TIME_ASSIGNMENT ( #187, #81, ( #171 ) ) ;
#6 = AXIS2_PLACEMENT_3D ( 'NONE', #183, #156, #158 ) ;
#7 = DIRECTION ( 'NONE',  ( -3.491481338843133355E-15, 1.224646799147353207E-16, -1.000000000000000000 ) ) ;
#8 = DIRECTION ( 'NONE',  ( -3.491481338843133355E-15, 1.224646799147353207E-16, -1.000000000000000000 ) ) ;
#9 = DIRECTION ( 'NONE',  ( 0.0000000000000000000, 1.000000000000000000, 0.0000000000000000000 ) ) ;
#10 = COORDINATED_UNIVERSAL_TIME_OFFSET ( 1, 0, .AHEAD. ) ;
#11 = PRODUCT_DEFINITION_FORMATION_WITH_SPECIFIED_SOURCE ( 'ANY', '', #174, .NOT_KNOWN. ) ;
#12 = DIRECTION ( 'NONE',  ( 4.275831445896958607E-31, 1.000000000000000000, 1.224646799147353207E-16 ) ) ;
#13 = VERTEX_POINT ( 'NONE', #62 ) ;
#14 = APPROVAL_ROLE ( '' ) ;
#15 = DATE_AND_TIME ( #141, #23 ) ;
#16 = APPROVAL ( #35, 'UNSPECIFIED' ) ;
#17 = EDGE_LOOP ( 'NONE', ( #164 ) ) ;
#18 = AXIS2_PLACEMENT_3D ( 'NONE', #74, #105, #67 ) ;
#19 = PLANE ( 'NONE',  #138 ) ;
#20 = ORIENTED_EDGE ( 'NONE', *, *, #73, .T. ) ;
#21 = CARTESIAN_POINT ( 'NONE',  ( -1.068957861474239564E-30, 3.749399456654644020E-32, -3.061616997868383141E-16 ) ) ;
#22 = CARTESIAN_POINT ( 'NONE',  ( 2.583696190743918430E-13, -9.062386313690413585E-15, 74.00000000000000000 ) ) ;
#23 = LOCAL_TIME ( 10, 4, 28.00000000000000000, #10 ) ;
#24 = ADVANCED_FACE ( 'NONE', ( #152, #134 ), #165, .T. ) ;
#25 = APPROVAL ( #193, 'UNSPECIFIED' ) ;
#26 = FACE_OUTER_BOUND ( 'NONE', #54, .T. ) ;
#27 = CARTESIAN_POINT ( 'NONE',  ( 2.618611004132350143E-13, 3.999999999999991562, 75.00000000000000000 ) ) ;
#28 =( NAMED_UNIT ( * ) SI_UNIT ( $, .STERADIAN. ) SOLID_ANGLE_UNIT ( ) );
#29 = CLOSED_SHELL ( 'NONE', ( #56, #178, #61 ) ) ;
#30 = PRODUCT_DEFINITION ( 'UNKNOWN', '', #11, #112 ) ;
#31 = PERSON_AND_ORGANIZATION ( #186, #201 ) ;
#32 = PRODUCT_DEFINITION_SHAPE ( 'NONE', 'NONE',  #30 ) ;
#33 = EDGE_LOOP ( 'NONE', ( #84 ) ) ;
#34 = ORIENTED_EDGE ( 'NONE', *, *, #157, .T. ) ;
#35 = APPROVAL_STATUS ( 'not_yet_approved' ) ;
#36 = FACE_OUTER_BOUND ( 'NONE', #17, .T. ) ;
#37 = DIRECTION ( 'NONE',  ( -3.491481338843133355E-15, 1.224646799147353207E-16, -1.000000000000000000 ) ) ;
#38 = AXIS2_PLACEMENT_3D ( 'NONE', #123, #177, #55 ) ;
#39 = CC_DESIGN_PERSON_AND_ORGANIZATION_ASSIGNMENT ( #31, #103, ( #171 ) ) ;
#40 = PERSON_AND_ORGANIZATION ( #186, #201 ) ;
#41 = AXIS2_PLACEMENT_3D ( 'NONE', #71, #8, #196 ) ;
#42 = CC_DESIGN_DATE_AND_TIME_ASSIGNMENT ( #15, #139, ( #30 ) ) ;
#43 = CARTESIAN_POINT ( 'NONE',  ( 0.0000000000000000000, 5.000000000000000000, 0.0000000000000000000 ) ) ;
#44 = CIRCLE ( 'NONE', #104, 4.000000000000000888 ) ;
#45 = CARTESIAN_POINT ( 'NONE',  ( 2.583696190743918430E-13, 4.999999999999989342, 74.00000000000000000 ) ) ;
#46 = CALENDAR_DATE ( 2021, 22, 11 ) ;
#47 = LOCAL_TIME ( 10, 4, 28.00000000000000000, #51 ) ;
#48 = DATE_AND_TIME ( #46, #76 ) ;
#49 = APPLICATION_CONTEXT ( 'configuration controlled 3d designs of mechanical parts and assemblies' ) ;
#50 = FACE_BOUND ( 'NONE', #162, .T. ) ;
#51 = COORDINATED_UNIVERSAL_TIME_OFFSET ( 1, 0, .AHEAD. ) ;
#52 = EDGE_LOOP ( 'NONE', ( #166 ) ) ;
#53 = CARTESIAN_POINT ( 'NONE',  ( 2.618611004132350143E-13, -9.184850993605148733E-15, 75.00000000000000000 ) ) ;
#54 = EDGE_LOOP ( 'NONE', ( #120 ) ) ;
#55 = DIRECTION ( 'NONE',  ( 0.0000000000000000000, 1.000000000000000000, 0.0000000000000000000 ) ) ;
#56 = ADVANCED_FACE ( 'NONE', ( #163 ), #137, .T. ) ;
#57 = CC_DESIGN_APPROVAL ( #16, ( #11 ) ) ;
#58 = APPROVAL_PERSON_ORGANIZATION ( #170, #117, #14 ) ;
#59 = VERTEX_POINT ( 'NONE', #43 ) ;
#60 = UNCERTAINTY_MEASURE_WITH_UNIT (LENGTH_MEASURE( 1.000000000000000082E-05 ), #1, 'distance_accuracy_value', 'NONE');
#61 = ADVANCED_FACE ( 'NONE', ( #36 ), #19, .T. ) ;
#62 = CARTESIAN_POINT ( 'NONE',  ( 8.728703347107833388E-14, 4.999999999999997335, 25.00000000000000000 ) ) ;
#63 = MECHANICAL_CONTEXT ( 'NONE', #49, 'mechanical' ) ;
#64 = CIRCLE ( 'NONE', #140, 4.999999999999998224 ) ;
#65 = DATE_AND_TIME ( #173, #106 ) ;
#66 = MANIFOLD_SOLID_BREP ( 'Corps-Déplacer/Copier1[1]', #83 ) ;
#67 = DIRECTION ( 'NONE',  ( 4.275831445896958607E-31, 1.000000000000000000, 1.224646799147353207E-16 ) ) ;
#68 = COORDINATED_UNIVERSAL_TIME_OFFSET ( 1, 0, .AHEAD. ) ;
#69 = DIRECTION ( 'NONE',  ( -3.491481338843133355E-15, 1.224646799147353207E-16, -1.000000000000000000 ) ) ;
#70 = CALENDAR_DATE ( 2021, 22, 11 ) ;
#71 = CARTESIAN_POINT ( 'NONE',  ( 2.618611004132350143E-13, 2.999519565323701531E-32, 75.00000000000000000 ) ) ;
#72 = ORIENTED_EDGE ( 'NONE', *, *, #109, .T. ) ;
#73 = EDGE_CURVE ( 'NONE', #182, #182, #93, .T. ) ;
#74 = CARTESIAN_POINT ( 'NONE',  ( 0.0000000000000000000, 0.0000000000000000000, 0.0000000000000000000 ) ) ;
#75 = CIRCLE ( 'NONE', #199, 5.000000000000000888 ) ;
#76 = LOCAL_TIME ( 10, 4, 28.00000000000000000, #144 ) ;
#77 = VERTEX_POINT ( 'NONE', #45 ) ;
#78 = CC_DESIGN_PERSON_AND_ORGANIZATION_ASSIGNMENT ( #133, #190, ( #11 ) ) ;
#79 = APPLICATION_PROTOCOL_DEFINITION ( 'international standard', 'config_control_design', 1994, #49 ) ;
#80 = COORDINATED_UNIVERSAL_TIME_OFFSET ( 1, 0, .AHEAD. ) ;
#81 = DATE_TIME_ROLE ( 'classification_date' ) ;
#82 = EDGE_LOOP ( 'NONE', ( #88 ) ) ;
#83 = CLOSED_SHELL ( 'NONE', ( #192, #24, #153, #91 ) ) ;
#84 = ORIENTED_EDGE ( 'NONE', *, *, #102, .F. ) ;
#85 = CC_DESIGN_PERSON_AND_ORGANIZATION_ASSIGNMENT ( #40, #114, ( #174 ) ) ;
#86 = PERSON_AND_ORGANIZATION_ROLE ( 'creator' ) ;
#87 = ORIENTED_EDGE ( 'NONE', *, *, #102, .T. ) ;
#88 = ORIENTED_EDGE ( 'NONE', *, *, #73, .F. ) ;
#89 = EDGE_LOOP ( 'NONE', ( #20 ) ) ;
#90 = LOCAL_TIME ( 10, 4, 28.00000000000000000, #68 ) ;
#91 = ADVANCED_FACE ( 'NONE', ( #150 ), #191, .F. ) ;
#92 =( NAMED_UNIT ( * ) PLANE_ANGLE_UNIT ( ) SI_UNIT ( $, .RADIAN. ) );
#93 = CIRCLE ( 'NONE', #155, 5.000000000000000888 ) ;
#94 = APPROVAL_DATE_TIME ( #65, #117 ) ;
#95 = FACE_OUTER_BOUND ( 'NONE', #89, .T. ) ;
#96 = APPLICATION_PROTOCOL_DEFINITION ( 'international standard', 'config_control_design', 1994, #127 ) ;
#97 = PERSON_AND_ORGANIZATION ( #186, #201 ) ;
#98 = PERSON_AND_ORGANIZATION ( #186, #201 ) ;
#99 = PRODUCT_RELATED_PRODUCT_CATEGORY ( 'detail', '', ( #174 ) ) ;
#100 = DIRECTION ( 'NONE',  ( 4.275831445896958607E-31, 1.000000000000000000, 1.224646799147353207E-16 ) ) ;
#101 = APPROVAL_DATE_TIME ( #48, #25 ) ;
#102 = EDGE_CURVE ( 'NONE', #110, #110, #44, .T. ) ;
#103 = PERSON_AND_ORGANIZATION_ROLE ( 'classification_officer' ) ;
#104 = AXIS2_PLACEMENT_3D ( 'NONE', #53, #69, #151 ) ;
#105 = DIRECTION ( 'NONE',  ( -3.491481338843133355E-15, 1.224646799147353207E-16, -1.000000000000000000 ) ) ;
#106 = LOCAL_TIME ( 10, 4, 28.00000000000000000, #80 ) ;
#107 = ORIENTED_EDGE ( 'NONE', *, *, #157, .F. ) ;
#108 = EDGE_LOOP ( 'NONE', ( #72 ) ) ;
#109 = EDGE_CURVE ( 'NONE', #13, #13, #75, .T. ) ;
#110 = VERTEX_POINT ( 'NONE', #27 ) ;
#111 = DIRECTION ( 'NONE',  ( 3.491481338843133355E-15, -1.224646799147353207E-16, 1.000000000000000000 ) ) ;
#112 = DESIGN_CONTEXT ( 'detailed design', #127, 'design' ) ;
#113 = AXIS2_PLACEMENT_3D ( 'NONE', #176, #7, #12 ) ;
#114 = PERSON_AND_ORGANIZATION_ROLE ( 'design_owner' ) ;
#115 = CARTESIAN_POINT ( 'NONE',  ( 8.728703347107833388E-14, 4.999999999999997335, 25.00000000000000000 ) ) ;
#116 = DATE_AND_TIME ( #70, #90 ) ;
#117 = APPROVAL ( #159, 'UNSPECIFIED' ) ;
#118 = SHAPE_DEFINITION_REPRESENTATION ( #32, #189 ) ;
#119 = DIRECTION ( 'NONE',  ( 0.0000000000000000000, 1.000000000000000000, 0.0000000000000000000 ) ) ;
#120 = ORIENTED_EDGE ( 'NONE', *, *, #169, .F. ) ;
#121 = APPROVAL_ROLE ( '' ) ;
#122 = CARTESIAN_POINT ( 'NONE',  ( 8.728703347107833388E-14, -3.061616997868383043E-15, 25.00000000000000000 ) ) ;
#123 = CARTESIAN_POINT ( 'NONE',  ( 2.583696190743918430E-13, -9.062386313690413585E-15, 74.00000000000000000 ) ) ;
#124 = DIRECTION ( 'NONE',  ( -3.491481338843133355E-15, 1.224646799147353207E-16, -1.000000000000000000 ) ) ;
#125 = CC_DESIGN_APPROVAL ( #117, ( #30 ) ) ;
#126 = AXIS2_PLACEMENT_3D ( 'NONE', #21, #37, #100 ) ;
#127 = APPLICATION_CONTEXT ( 'configuration controlled 3d designs of mechanical parts and assemblies' ) ;
#128 = PERSON_AND_ORGANIZATION ( #186, #201 ) ;
#129 = AXIS2_PLACEMENT_3D ( 'NONE', #130, #111, #203 ) ;
#130 = CARTESIAN_POINT ( 'NONE',  ( 8.728703347107833388E-14, 3.749399456654639093E-32, 25.00000000000000000 ) ) ;
#131 = CC_DESIGN_SECURITY_CLASSIFICATION ( #171, ( #11 ) ) ;
#132 = DIRECTION ( 'NONE',  ( -4.275831445896958607E-31, -1.000000000000000000, -1.224646799147353207E-16 ) ) ;
#133 = PERSON_AND_ORGANIZATION ( #186, #201 ) ;
#134 = FACE_OUTER_BOUND ( 'NONE', #82, .T. ) ;
#135 = DIRECTION ( 'NONE',  ( 3.491481338843133355E-15, -1.224646799147353207E-16, 1.000000000000000000 ) ) ;
#136 = DIRECTION ( 'NONE',  ( -3.491481338843133355E-15, 1.224646799147353207E-16, -1.000000000000000000 ) ) ;
#137 = PLANE ( 'NONE',  #126 ) ;
#138 = AXIS2_PLACEMENT_3D ( 'NONE', #148, #135, #132 ) ;
#139 = DATE_TIME_ROLE ( 'creation_date' ) ;
#140 = AXIS2_PLACEMENT_3D ( 'NONE', #22, #124, #119 ) ;
#141 = CALENDAR_DATE ( 2021, 22, 11 ) ;
#142 = DIRECTION ( 'NONE',  ( 0.0000000000000000000, 0.0000000000000000000, 1.000000000000000000 ) ) ;
#143 = PLANE ( 'NONE',  #129 ) ;
#144 = COORDINATED_UNIVERSAL_TIME_OFFSET ( 1, 0, .AHEAD. ) ;
#145 = APPROVAL_DATE_TIME ( #116, #16 ) ;
#146 = CARTESIAN_POINT ( 'NONE',  ( 8.728703347107833388E-14, -3.061616997868383043E-15, 25.00000000000000000 ) ) ;
#147 = APPROVAL_PERSON_ORGANIZATION ( #128, #16, #195 ) ;
#148 = CARTESIAN_POINT ( 'NONE',  ( 8.728703347107833388E-14, 3.749399456654639093E-32, 25.00000000000000000 ) ) ;
#149 = CALENDAR_DATE ( 2021, 22, 11 ) ;
#150 = FACE_OUTER_BOUND ( 'NONE', #33, .T. ) ;
#151 = DIRECTION ( 'NONE',  ( 0.0000000000000000000, 1.000000000000000000, 0.0000000000000000000 ) ) ;
#152 = FACE_OUTER_BOUND ( 'NONE', #179, .T. ) ;
#153 = ADVANCED_FACE ( 'NONE', ( #50, #197 ), #185, .T. ) ;
#154 =( GEOMETRIC_REPRESENTATION_CONTEXT ( 3 ) GLOBAL_UNCERTAINTY_ASSIGNED_CONTEXT ( ( #60 ) ) GLOBAL_UNIT_ASSIGNED_CONTEXT ( ( #1, #92, #28 ) ) REPRESENTATION_CONTEXT ( 'NONE', 'WORKASPACE' ) );
#155 = AXIS2_PLACEMENT_3D ( 'NONE', #146, #194, #198 ) ;
#156 = DIRECTION ( 'NONE',  ( -3.491481338843133355E-15, 1.224646799147353207E-16, -1.000000000000000000 ) ) ;
#157 = EDGE_CURVE ( 'NONE', #77, #77, #64, .T. ) ;
#158 = DIRECTION ( 'NONE',  ( 4.275831445896958607E-31, 1.000000000000000000, 1.224646799147353207E-16 ) ) ;
#159 = APPROVAL_STATUS ( 'not_yet_approved' ) ;
#160 = PERSON_AND_ORGANIZATION_ROLE ( 'creator' ) ;
#161 = SECURITY_CLASSIFICATION_LEVEL ( 'unclassified' ) ;
#162 = EDGE_LOOP ( 'NONE', ( #87 ) ) ;
#163 = FACE_OUTER_BOUND ( 'NONE', #52, .T. ) ;
#164 = ORIENTED_EDGE ( 'NONE', *, *, #109, .F. ) ;
#165 = CYLINDRICAL_SURFACE ( 'NONE', #18, 4.999999999999999112 ) ;
#166 = ORIENTED_EDGE ( 'NONE', *, *, #169, .T. ) ;
#167 = APPROVAL_PERSON_ORGANIZATION ( #98, #25, #121 ) ;
#168 = DIRECTION ( 'NONE',  ( 1.000000000000000000, 0.0000000000000000000, 0.0000000000000000000 ) ) ;
#169 = EDGE_CURVE ( 'NONE', #59, #59, #184, .T. ) ;
#170 = PERSON_AND_ORGANIZATION ( #186, #201 ) ;
#171 = SECURITY_CLASSIFICATION ( '', '', #161 ) ;
#172 = CARTESIAN_POINT ( 'NONE',  ( 0.0000000000000000000, 0.0000000000000000000, 0.0000000000000000000 ) ) ;
#173 = CALENDAR_DATE ( 2021, 22, 11 ) ;
#174 = PRODUCT ( '28072', '28072', '', ( #63 ) ) ;
#175 = PERSON_AND_ORGANIZATION ( #186, #201 ) ;
#176 = CARTESIAN_POINT ( 'NONE',  ( -2.137915722948479128E-30, 7.498798913309288039E-32, -6.123233995736766282E-16 ) ) ;
#177 = DIRECTION ( 'NONE',  ( -3.491481338843133355E-15, 1.224646799147353207E-16, -1.000000000000000000 ) ) ;
#178 = ADVANCED_FACE ( 'NONE', ( #180, #26 ), #2, .T. ) ;
#179 = EDGE_LOOP ( 'NONE', ( #34 ) ) ;
#180 = FACE_OUTER_BOUND ( 'NONE', #108, .T. ) ;
#181 = CC_DESIGN_PERSON_AND_ORGANIZATION_ASSIGNMENT ( #175, #86, ( #11 ) ) ;
#182 = VERTEX_POINT ( 'NONE', #115 ) ;
#183 = CARTESIAN_POINT ( 'NONE',  ( 0.0000000000000000000, 0.0000000000000000000, 0.0000000000000000000 ) ) ;
#184 = CIRCLE ( 'NONE', #113, 5.000000000000000000 ) ;
#185 = CONICAL_SURFACE ( 'NONE', #38, 4.999999999999998224, 0.7853981633974466137 ) ;
#186 = PERSON ( 'UNSPECIFIED', 'UNSPECIFIED', 'UNSPECIFIED', ('UNSPECIFIED'), ('UNSPECIFIED'), ('UNSPECIFIED') ) ;
#187 = DATE_AND_TIME ( #149, #47 ) ;
#188 = CC_DESIGN_APPROVAL ( #25, ( #171 ) ) ;
#189 = ADVANCED_BREP_SHAPE_REPRESENTATION ( '28072', ( #66, #200, #3 ), #154 ) ;
#190 = PERSON_AND_ORGANIZATION_ROLE ( 'design_supplier' ) ;
#191 = PLANE ( 'NONE',  #41 ) ;
#192 = ADVANCED_FACE ( 'NONE', ( #95 ), #143, .F. ) ;
#193 = APPROVAL_STATUS ( 'not_yet_approved' ) ;
#194 = DIRECTION ( 'NONE',  ( -3.491481338843133355E-15, 1.224646799147353207E-16, -1.000000000000000000 ) ) ;
#195 = APPROVAL_ROLE ( '' ) ;
#196 = DIRECTION ( 'NONE',  ( 4.275831445896958607E-31, 1.000000000000000000, 1.224646799147353207E-16 ) ) ;
#197 = FACE_OUTER_BOUND ( 'NONE', #4, .T. ) ;
#198 = DIRECTION ( 'NONE',  ( 0.0000000000000000000, 1.000000000000000000, 0.0000000000000000000 ) ) ;
#199 = AXIS2_PLACEMENT_3D ( 'NONE', #122, #136, #9 ) ;
#200 = MANIFOLD_SOLID_BREP ( 'Corps-Déplacer/Copier1[2]', #29 ) ;
#201 = ORGANIZATION ( 'UNSPECIFIED', 'UNSPECIFIED', '' ) ;
#202 = CC_DESIGN_PERSON_AND_ORGANIZATION_ASSIGNMENT ( #97, #160, ( #30 ) ) ;
#203 = DIRECTION ( 'NONE',  ( -4.275831445896958607E-31, -1.000000000000000000, -1.224646799147353207E-16 ) ) ;
ENDSEC;
END-ISO-10303-21;
