ISO-10303-21;
HEADER;
FILE_DESCRIPTION (( 'STEP AP203' ),
    '1' );
FILE_NAME ('27863.step',
    '2021-10-07T13:46:33',
    ( '' ),
    ( '' ),
    'SwSTEP 2.0',
    'SolidWorks 2019',
    '' );
FILE_SCHEMA (( 'CONFIG_CONTROL_DESIGN' ));
ENDSEC;

DATA;
#1 = EDGE_LOOP ( 'NONE', ( #91 ) ) ;
#2 = FACE_OUTER_BOUND ( 'NONE', #217, .T. ) ;
#3 = CONICAL_SURFACE ( 'NONE', #142, 0.5499999999999990452, 0.7853981633974604915 ) ;
#4 = CC_DESIGN_APPROVAL ( #74, ( #124 ) ) ;
#5 = APPLICATION_CONTEXT ( 'configuration controlled 3d designs of mechanical parts and assemblies' ) ;
#6 = EDGE_LOOP ( 'NONE', ( #165 ) ) ;
#7 = VERTEX_POINT ( 'NONE', #114 ) ;
#8 = CARTESIAN_POINT ( 'NONE',  ( 1.353141396884409512E-15, -4.746181118176447378E-17, 0.3875550992727800348 ) ) ;
#9 = EDGE_LOOP ( 'NONE', ( #39 ) ) ;
#10 = ADVANCED_FACE ( 'NONE', ( #2 ), #179, .T. ) ;
#11 = ORIENTED_EDGE ( 'NONE', *, *, #118, .T. ) ;
#12 = CC_DESIGN_PERSON_AND_ORGANIZATION_ASSIGNMENT ( #199, #132, ( #127 ) ) ;
#13 = ORIENTED_EDGE ( 'NONE', *, *, #90, .T. ) ;
#14 = FACE_OUTER_BOUND ( 'NONE', #6, .T. ) ;
#15 = APPROVAL_PERSON_ORGANIZATION ( #102, #157, #30 ) ;
#16 = CC_DESIGN_PERSON_AND_ORGANIZATION_ASSIGNMENT ( #76, #55, ( #124 ) ) ;
#17 = DIRECTION ( 'NONE',  ( -3.491481338843133355E-15, 1.224646799147353207E-16, -1.000000000000000000 ) ) ;
#18 = APPROVAL_STATUS ( 'not_yet_approved' ) ;
#19 = DIRECTION ( 'NONE',  ( -3.491481338843133355E-15, 1.224646799147353207E-16, -1.000000000000000000 ) ) ;
#20 = ADVANCED_FACE ( 'NONE', ( #14, #62 ), #201, .T. ) ;
#21 = AXIS2_PLACEMENT_3D ( 'NONE', #81, #63, #120 ) ;
#22 = FACE_BOUND ( 'NONE', #56, .T. ) ;
#23 = DIRECTION ( 'NONE',  ( -4.275831445896958607E-31, -1.000000000000000000, -1.224646799147353207E-16 ) ) ;
#24 = LOCAL_TIME ( 15, 46, 33.00000000000000000, #129 ) ;
#25 = APPROVAL_STATUS ( 'not_yet_approved' ) ;
#26 =( NAMED_UNIT ( * ) PLANE_ANGLE_UNIT ( ) SI_UNIT ( $, .RADIAN. ) );
#27 = DIRECTION ( 'NONE',  ( 1.000000000000000000, 0.0000000000000000000, 0.0000000000000000000 ) ) ;
#28 = CALENDAR_DATE ( 2021, 7, 10 ) ;
#29 = CLOSED_SHELL ( 'NONE', ( #10, #20, #145 ) ) ;
#30 = APPROVAL_ROLE ( '' ) ;
#31 = CARTESIAN_POINT ( 'NONE',  ( 1.047444401652940007E-13, 4.124339402320045473E-33, 30.00000000000000000 ) ) ;
#32 = PLANE ( 'NONE',  #171 ) ;
#33 = FACE_OUTER_BOUND ( 'NONE', #222, .T. ) ;
#34 = AXIS2_PLACEMENT_3D ( 'NONE', #31, #17, #221 ) ;
#35 = ORIENTED_EDGE ( 'NONE', *, *, #90, .F. ) ;
#36 = DIRECTION ( 'NONE',  ( -3.491481338843133355E-15, 1.224646799147353207E-16, -1.000000000000000000 ) ) ;
#37 = EDGE_LOOP ( 'NONE', ( #146 ) ) ;
#38 = AXIS2_PLACEMENT_3D ( 'NONE', #126, #213, #162 ) ;
#39 = ORIENTED_EDGE ( 'NONE', *, *, #101, .F. ) ;
#40 = APPLICATION_PROTOCOL_DEFINITION ( 'international standard', 'config_control_design', 1994, #5 ) ;
#41 = VERTEX_POINT ( 'NONE', #54 ) ;
#42 = CARTESIAN_POINT ( 'NONE',  ( 3.491481338843133355E-14, 0.6449999999999993516, 10.00000000000000000 ) ) ;
#43 = CALENDAR_DATE ( 2021, 7, 10 ) ;
#44 = EDGE_CURVE ( 'NONE', #7, #7, #79, .T. ) ;
#45 = AXIS2_PLACEMENT_3D ( 'NONE', #181, #147, #27 ) ;
#46 = PERSON_AND_ORGANIZATION_ROLE ( 'classification_officer' ) ;
#47 = PRODUCT_RELATED_PRODUCT_CATEGORY ( 'detail', '', ( #164 ) ) ;
#48 = SHAPE_DEFINITION_REPRESENTATION ( #200, #210 ) ;
#49 = EDGE_CURVE ( 'NONE', #96, #96, #188, .T. ) ;
#50 = CYLINDRICAL_SURFACE ( 'NONE', #100, 0.7499999999999984457 ) ;
#51 = CARTESIAN_POINT ( 'NONE',  ( 1.353141396884409709E-15, 0.6449999999999989075, 0.3875550992727800903 ) ) ;
#52 = ADVANCED_FACE ( 'NONE', ( #211 ), #112, .F. ) ;
#53 = EDGE_LOOP ( 'NONE', ( #11 ) ) ;
#54 = CARTESIAN_POINT ( 'NONE',  ( 1.040461438975253866E-13, 0.7499999999999955591, 29.80000000000000426 ) ) ;
#55 = PERSON_AND_ORGANIZATION_ROLE ( 'creator' ) ;
#56 = EDGE_LOOP ( 'NONE', ( #153 ) ) ;
#57 = DIRECTION ( 'NONE',  ( 0.0000000000000000000, 1.000000000000000000, 0.0000000000000000000 ) ) ;
#58 = VERTEX_POINT ( 'NONE', #92 ) ;
#59 = FACE_OUTER_BOUND ( 'NONE', #37, .T. ) ;
#60 = DATE_TIME_ROLE ( 'classification_date' ) ;
#61 = DIRECTION ( 'NONE',  ( 3.491481338843133355E-15, -1.224646799147353207E-16, 1.000000000000000000 ) ) ;
#62 = FACE_OUTER_BOUND ( 'NONE', #97, .T. ) ;
#63 = DIRECTION ( 'NONE',  ( -3.491481338843133355E-15, 1.224646799147353207E-16, -1.000000000000000000 ) ) ;
#64 = CARTESIAN_POINT ( 'NONE',  ( 3.554979281104959053E-14, -1.246918879160576030E-15, 10.18186533479473077 ) ) ;
#65 = CIRCLE ( 'NONE', #21, 0.5499999999999990452 ) ;
#66 = FACE_OUTER_BOUND ( 'NONE', #53, .T. ) ;
#67 = FACE_OUTER_BOUND ( 'NONE', #123, .T. ) ;
#68 = CC_DESIGN_APPROVAL ( #175, ( #140 ) ) ;
#69 = MANIFOLD_SOLID_BREP ( 'Corps-Déplacer/Copier1[1]', #110 ) ;
#70 = ORIENTED_EDGE ( 'NONE', *, *, #49, .T. ) ;
#71 = COORDINATED_UNIVERSAL_TIME_OFFSET ( 1, 0, .AHEAD. ) ;
#72 = DIRECTION ( 'NONE',  ( -3.491481338843133355E-15, 1.224646799147353207E-16, -1.000000000000000000 ) ) ;
#73 = CARTESIAN_POINT ( 'NONE',  ( 1.047444401652940007E-13, 0.5499999999999953815, 30.00000000000000000 ) ) ;
#74 = APPROVAL ( #168, 'UNSPECIFIED' ) ;
#75 = ORIENTED_EDGE ( 'NONE', *, *, #44, .T. ) ;
#76 = PERSON_AND_ORGANIZATION ( #119, #189 ) ;
#77 = PERSON_AND_ORGANIZATION ( #119, #189 ) ;
#78 = APPROVAL_DATE_TIME ( #174, #157 ) ;
#79 = CIRCLE ( 'NONE', #209, 0.6450000000000004619 ) ;
#80 = CC_DESIGN_PERSON_AND_ORGANIZATION_ASSIGNMENT ( #134, #206, ( #127 ) ) ;
#81 = CARTESIAN_POINT ( 'NONE',  ( 1.047444401652940007E-13, -3.673940397442059178E-15, 30.00000000000000000 ) ) ;
#82 = CALENDAR_DATE ( 2021, 7, 10 ) ;
#83 = COORDINATED_UNIVERSAL_TIME_OFFSET ( 1, 0, .AHEAD. ) ;
#84 = DIRECTION ( 'NONE',  ( 0.0000000000000000000, 1.000000000000000000, 0.0000000000000000000 ) ) ;
#85 = CIRCLE ( 'NONE', #167, 0.7499999999999976685 ) ;
#86 = CARTESIAN_POINT ( 'NONE',  ( 1.353141396884409512E-15, -4.746181118176447378E-17, 0.3875550992727800348 ) ) ;
#87 = DIRECTION ( 'NONE',  ( -3.491481338843133355E-15, 1.224646799147353207E-16, -1.000000000000000000 ) ) ;
#88 = FACE_BOUND ( 'NONE', #99, .T. ) ;
#89 = LOCAL_TIME ( 15, 46, 33.00000000000000000, #196 ) ;
#90 = EDGE_CURVE ( 'NONE', #58, #58, #85, .T. ) ;
#91 = ORIENTED_EDGE ( 'NONE', *, *, #137, .T. ) ;
#92 = CARTESIAN_POINT ( 'NONE',  ( 3.554979281104959053E-14, 0.7499999999999963363, 10.18186533479473077 ) ) ;
#93 = DIRECTION ( 'NONE',  ( 2.985937898274789353E-31, 1.000000000000000000, 8.404668003763614577E-17 ) ) ;
#94 = DESIGN_CONTEXT ( 'detailed design', #5, 'design' ) ;
#95 = EDGE_LOOP ( 'NONE', ( #35 ) ) ;
#96 = VERTEX_POINT ( 'NONE', #51 ) ;
#97 = EDGE_LOOP ( 'NONE', ( #75 ) ) ;
#98 = PERSON_AND_ORGANIZATION ( #119, #189 ) ;
#99 = EDGE_LOOP ( 'NONE', ( #108 ) ) ;
#100 = AXIS2_PLACEMENT_3D ( 'NONE', #214, #36, #125 ) ;
#101 = EDGE_CURVE ( 'NONE', #216, #216, #65, .T. ) ;
#102 = PERSON_AND_ORGANIZATION ( #119, #189 ) ;
#103 = CC_DESIGN_SECURITY_CLASSIFICATION ( #140, ( #127 ) ) ;
#104 = CARTESIAN_POINT ( 'NONE',  ( 3.491481338843133355E-14, -1.224646799147353256E-15, 10.00000000000000000 ) ) ;
#105 = AXIS2_PLACEMENT_3D ( 'NONE', #143, #170, #111 ) ;
#106 = LOCAL_TIME ( 15, 46, 33.00000000000000000, #71 ) ;
#107 = CALENDAR_DATE ( 2021, 7, 10 ) ;
#108 = ORIENTED_EDGE ( 'NONE', *, *, #118, .F. ) ;
#109 = CC_DESIGN_PERSON_AND_ORGANIZATION_ASSIGNMENT ( #204, #46, ( #140 ) ) ;
#110 = CLOSED_SHELL ( 'NONE', ( #155, #176, #190, #122, #52 ) ) ;
#111 = DIRECTION ( 'NONE',  ( 0.0000000000000000000, -1.000000000000000000, 0.0000000000000000000 ) ) ;
#112 = PLANE ( 'NONE',  #34 ) ;
#113 = DIRECTION ( 'NONE',  ( 0.0000000000000000000, 1.000000000000000000, 0.0000000000000000000 ) ) ;
#114 = CARTESIAN_POINT ( 'NONE',  ( 3.491481338843133355E-14, 0.6449999999999993516, 10.00000000000000000 ) ) ;
#115 = CC_DESIGN_DATE_AND_TIME_ASSIGNMENT ( #197, #144, ( #124 ) ) ;
#116 = CIRCLE ( 'NONE', #208, 0.6450000000000004619 ) ;
#117 = CARTESIAN_POINT ( 'NONE',  ( 0.0000000000000000000, 0.0000000000000000000, 0.0000000000000000000 ) ) ;
#118 = EDGE_CURVE ( 'NONE', #193, #193, #116, .T. ) ;
#119 = PERSON ( 'UNSPECIFIED', 'UNSPECIFIED', 'UNSPECIFIED', ('UNSPECIFIED'), ('UNSPECIFIED'), ('UNSPECIFIED') ) ;
#120 = DIRECTION ( 'NONE',  ( 0.0000000000000000000, 1.000000000000000000, 0.0000000000000000000 ) ) ;
#121 = APPROVAL_PERSON_ORGANIZATION ( #166, #74, #151 ) ;
#122 = ADVANCED_FACE ( 'NONE', ( #67, #22 ), #3, .T. ) ;
#123 = EDGE_LOOP ( 'NONE', ( #141 ) ) ;
#124 = PRODUCT_DEFINITION ( 'UNKNOWN', '', #127, #94 ) ;
#125 = DIRECTION ( 'NONE',  ( 4.275831445896958607E-31, 1.000000000000000000, 1.224646799147353454E-16 ) ) ;
#126 = CARTESIAN_POINT ( 'NONE',  ( 3.491481338843133355E-14, 4.836725299084476827E-33, 10.00000000000000000 ) ) ;
#127 = PRODUCT_DEFINITION_FORMATION_WITH_SPECIFIED_SOURCE ( 'ANY', '', #164, .NOT_KNOWN. ) ;
#128 = PLANE ( 'NONE',  #38 ) ;
#129 = COORDINATED_UNIVERSAL_TIME_OFFSET ( 1, 0, .AHEAD. ) ;
#130 = CARTESIAN_POINT ( 'NONE',  ( 1.040461438975253866E-13, -3.649447461459112464E-15, 29.80000000000000426 ) ) ;
#131 = DIRECTION ( 'NONE',  ( -2.985937898274789353E-31, -1.000000000000000000, -8.404668003763614577E-17 ) ) ;
#132 = PERSON_AND_ORGANIZATION_ROLE ( 'design_supplier' ) ;
#133 = APPROVAL_ROLE ( '' ) ;
#134 = PERSON_AND_ORGANIZATION ( #119, #189 ) ;
#135 = AXIS2_PLACEMENT_3D ( 'NONE', #86, #61, #131 ) ;
#136 = CARTESIAN_POINT ( 'NONE',  ( 3.491481338843133355E-14, 4.836725299084476827E-33, 10.00000000000000000 ) ) ;
#137 = EDGE_CURVE ( 'NONE', #41, #41, #203, .T. ) ;
#138 = CARTESIAN_POINT ( 'NONE',  ( 1.047444401652940007E-13, -3.673940397442059178E-15, 30.00000000000000000 ) ) ;
#139 = AXIS2_PLACEMENT_3D ( 'NONE', #130, #218, #113 ) ;
#140 = SECURITY_CLASSIFICATION ( '', '', #169 ) ;
#141 = ORIENTED_EDGE ( 'NONE', *, *, #137, .F. ) ;
#142 = AXIS2_PLACEMENT_3D ( 'NONE', #138, #87, #57 ) ;
#143 = CARTESIAN_POINT ( 'NONE',  ( 3.554979281104959053E-14, -1.246918879160576030E-15, 10.18186533479473077 ) ) ;
#144 = DATE_TIME_ROLE ( 'creation_date' ) ;
#145 = ADVANCED_FACE ( 'NONE', ( #59 ), #128, .T. ) ;
#146 = ORIENTED_EDGE ( 'NONE', *, *, #44, .F. ) ;
#147 = DIRECTION ( 'NONE',  ( 0.0000000000000000000, 0.0000000000000000000, 1.000000000000000000 ) ) ;
#148 = DIRECTION ( 'NONE',  ( 0.0000000000000000000, 1.000000000000000000, 0.0000000000000000000 ) ) ;
#149 =( NAMED_UNIT ( * ) SI_UNIT ( $, .STERADIAN. ) SOLID_ANGLE_UNIT ( ) );
#150 = APPROVAL_PERSON_ORGANIZATION ( #77, #175, #133 ) ;
#151 = APPROVAL_ROLE ( '' ) ;
#152 = CALENDAR_DATE ( 2021, 7, 10 ) ;
#153 = ORIENTED_EDGE ( 'NONE', *, *, #101, .T. ) ;
#154 = COORDINATED_UNIVERSAL_TIME_OFFSET ( 1, 0, .AHEAD. ) ;
#155 = ADVANCED_FACE ( 'NONE', ( #66 ), #32, .F. ) ;
#156 = AXIS2_PLACEMENT_3D ( 'NONE', #8, #72, #93 ) ;
#157 = APPROVAL ( #25, 'UNSPECIFIED' ) ;
#158 = APPLICATION_CONTEXT ( 'configuration controlled 3d designs of mechanical parts and assemblies' ) ;
#159 =( GEOMETRIC_REPRESENTATION_CONTEXT ( 3 ) GLOBAL_UNCERTAINTY_ASSIGNED_CONTEXT ( ( #202 ) ) GLOBAL_UNIT_ASSIGNED_CONTEXT ( ( #160, #26, #149 ) ) REPRESENTATION_CONTEXT ( 'NONE', 'WORKASPACE' ) );
#160 =( LENGTH_UNIT ( ) NAMED_UNIT ( * ) SI_UNIT ( .MILLI., .METRE. ) );
#161 = DIRECTION ( 'NONE',  ( -3.491481338843133355E-15, 1.224646799147353207E-16, -1.000000000000000000 ) ) ;
#162 = DIRECTION ( 'NONE',  ( -4.275831445896958607E-31, -1.000000000000000000, -1.224646799147353207E-16 ) ) ;
#163 = FACE_OUTER_BOUND ( 'NONE', #95, .T. ) ;
#164 = PRODUCT ( '27863', '27863', '', ( #194 ) ) ;
#165 = ORIENTED_EDGE ( 'NONE', *, *, #49, .F. ) ;
#166 = PERSON_AND_ORGANIZATION ( #119, #189 ) ;
#167 = AXIS2_PLACEMENT_3D ( 'NONE', #64, #187, #173 ) ;
#168 = APPROVAL_STATUS ( 'not_yet_approved' ) ;
#169 = SECURITY_CLASSIFICATION_LEVEL ( 'unclassified' ) ;
#170 = DIRECTION ( 'NONE',  ( 3.491481338843133355E-15, -1.224646799147353207E-16, 1.000000000000000000 ) ) ;
#171 = AXIS2_PLACEMENT_3D ( 'NONE', #136, #207, #23 ) ;
#172 = LOCAL_TIME ( 15, 46, 33.00000000000000000, #83 ) ;
#173 = DIRECTION ( 'NONE',  ( 0.0000000000000000000, 1.000000000000000000, 0.0000000000000000000 ) ) ;
#174 = DATE_AND_TIME ( #107, #106 ) ;
#175 = APPROVAL ( #18, 'UNSPECIFIED' ) ;
#176 = ADVANCED_FACE ( 'NONE', ( #88, #33 ), #191, .T. ) ;
#177 = DIRECTION ( 'NONE',  ( -3.491481338843133355E-15, 1.224646799147353207E-16, -1.000000000000000000 ) ) ;
#178 = APPROVAL_DATE_TIME ( #185, #74 ) ;
#179 = CONICAL_SURFACE ( 'NONE', #135, 0.6449999999999989075, 1.029744258676649649 ) ;
#180 = FACE_OUTER_BOUND ( 'NONE', #1, .T. ) ;
#181 = CARTESIAN_POINT ( 'NONE',  ( 0.0000000000000000000, 0.0000000000000000000, 0.0000000000000000000 ) ) ;
#182 = CARTESIAN_POINT ( 'NONE',  ( 3.491481338843133355E-14, -1.224646799147353256E-15, 10.00000000000000000 ) ) ;
#183 = PERSON_AND_ORGANIZATION_ROLE ( 'design_owner' ) ;
#184 = AXIS2_PLACEMENT_3D ( 'NONE', #117, #161, #195 ) ;
#185 = DATE_AND_TIME ( #28, #89 ) ;
#186 = DATE_AND_TIME ( #43, #212 ) ;
#187 = DIRECTION ( 'NONE',  ( -3.491481338843133355E-15, 1.224646799147353207E-16, -1.000000000000000000 ) ) ;
#188 = CIRCLE ( 'NONE', #156, 0.6449999999999989075 ) ;
#189 = ORGANIZATION ( 'UNSPECIFIED', 'UNSPECIFIED', '' ) ;
#190 = ADVANCED_FACE ( 'NONE', ( #163, #180 ), #50, .T. ) ;
#191 = CONICAL_SURFACE ( 'NONE', #105, 0.7499999999999976685, 0.5235987755982922653 ) ;
#192 = APPLICATION_PROTOCOL_DEFINITION ( 'international standard', 'config_control_design', 1994, #158 ) ;
#193 = VERTEX_POINT ( 'NONE', #42 ) ;
#194 = MECHANICAL_CONTEXT ( 'NONE', #158, 'mechanical' ) ;
#195 = DIRECTION ( 'NONE',  ( 4.275831445896957731E-31, 1.000000000000000000, 1.224646799147353207E-16 ) ) ;
#196 = COORDINATED_UNIVERSAL_TIME_OFFSET ( 1, 0, .AHEAD. ) ;
#197 = DATE_AND_TIME ( #152, #24 ) ;
#198 = CC_DESIGN_PERSON_AND_ORGANIZATION_ASSIGNMENT ( #98, #183, ( #164 ) ) ;
#199 = PERSON_AND_ORGANIZATION ( #119, #189 ) ;
#200 = PRODUCT_DEFINITION_SHAPE ( 'NONE', 'NONE',  #124 ) ;
#201 = CYLINDRICAL_SURFACE ( 'NONE', #184, 0.6449999999999997957 ) ;
#202 = UNCERTAINTY_MEASURE_WITH_UNIT (LENGTH_MEASURE( 1.000000000000000082E-05 ), #160, 'distance_accuracy_value', 'NONE');
#203 = CIRCLE ( 'NONE', #139, 0.7499999999999992228 ) ;
#204 = PERSON_AND_ORGANIZATION ( #119, #189 ) ;
#205 = CC_DESIGN_APPROVAL ( #157, ( #127 ) ) ;
#206 = PERSON_AND_ORGANIZATION_ROLE ( 'creator' ) ;
#207 = DIRECTION ( 'NONE',  ( 3.491481338843133355E-15, -1.224646799147353207E-16, 1.000000000000000000 ) ) ;
#208 = AXIS2_PLACEMENT_3D ( 'NONE', #104, #19, #84 ) ;
#209 = AXIS2_PLACEMENT_3D ( 'NONE', #182, #177, #148 ) ;
#210 = ADVANCED_BREP_SHAPE_REPRESENTATION ( '27863', ( #69, #215, #45 ), #159 ) ;
#211 = FACE_OUTER_BOUND ( 'NONE', #9, .T. ) ;
#212 = LOCAL_TIME ( 15, 46, 33.00000000000000000, #154 ) ;
#213 = DIRECTION ( 'NONE',  ( 3.491481338843133355E-15, -1.224646799147353207E-16, 1.000000000000000000 ) ) ;
#214 = CARTESIAN_POINT ( 'NONE',  ( 0.0000000000000000000, 0.0000000000000000000, 0.0000000000000000000 ) ) ;
#215 = MANIFOLD_SOLID_BREP ( 'Corps-Déplacer/Copier1[2]', #29 ) ;
#216 = VERTEX_POINT ( 'NONE', #73 ) ;
#217 = EDGE_LOOP ( 'NONE', ( #70 ) ) ;
#218 = DIRECTION ( 'NONE',  ( -3.491481338843133355E-15, 1.224646799147353207E-16, -1.000000000000000000 ) ) ;
#219 = DATE_AND_TIME ( #82, #172 ) ;
#220 = CC_DESIGN_DATE_AND_TIME_ASSIGNMENT ( #186, #60, ( #140 ) ) ;
#221 = DIRECTION ( 'NONE',  ( 4.275831445896958607E-31, 1.000000000000000000, 1.224646799147353207E-16 ) ) ;
#222 = EDGE_LOOP ( 'NONE', ( #13 ) ) ;
#223 = APPROVAL_DATE_TIME ( #219, #175 ) ;
ENDSEC;
END-ISO-10303-21;
