ISO-10303-21;
HEADER;
FILE_DESCRIPTION (( 'STEP AP203' ),
    '1' );
FILE_NAME ('27862.step',
    '2021-10-07T13:46:32',
    ( '' ),
    ( '' ),
    'SwSTEP 2.0',
    'SolidWorks 2019',
    '' );
FILE_SCHEMA (( 'CONFIG_CONTROL_DESIGN' ));
ENDSEC;

DATA;
#1 = EDGE_CURVE ( 'NONE', #106, #106, #96, .T. ) ;
#2 = APPROVAL_PERSON_ORGANIZATION ( #95, #57, #10 ) ;
#3 = DIRECTION ( 'NONE',  ( -3.491481338843133355E-15, 1.224646799147353207E-16, -1.000000000000000000 ) ) ;
#4 = APPROVAL_DATE_TIME ( #22, #168 ) ;
#5 = CARTESIAN_POINT ( 'NONE',  ( 1.040461438975253866E-13, 0.7499999999999955591, 29.80000000000000426 ) ) ;
#6 = CARTESIAN_POINT ( 'NONE',  ( 1.321672992305702071E-15, -4.635804813102576021E-17, 0.3785421899873664953 ) ) ;
#7 = EDGE_LOOP ( 'NONE', ( #37 ) ) ;
#8 = DIRECTION ( 'NONE',  ( 0.0000000000000000000, 0.0000000000000000000, 1.000000000000000000 ) ) ;
#9 = EDGE_LOOP ( 'NONE', ( #189 ) ) ;
#10 = APPROVAL_ROLE ( '' ) ;
#11 = CC_DESIGN_PERSON_AND_ORGANIZATION_ASSIGNMENT ( #26, #160, ( #195 ) ) ;
#12 = AXIS2_PLACEMENT_3D ( 'NONE', #14, #116, #100 ) ;
#13 = LOCAL_TIME ( 15, 46, 32.00000000000000000, #152 ) ;
#14 = CARTESIAN_POINT ( 'NONE',  ( 1.047444401652940007E-13, -3.673940397442059178E-15, 30.00000000000000000 ) ) ;
#15 = DIRECTION ( 'NONE',  ( 0.0000000000000000000, 1.000000000000000000, 0.0000000000000000000 ) ) ;
#16 = EDGE_CURVE ( 'NONE', #108, #108, #24, .T. ) ;
#17 = CIRCLE ( 'NONE', #132, 0.6299999999999987832 ) ;
#18 =( NAMED_UNIT ( * ) SI_UNIT ( $, .STERADIAN. ) SOLID_ANGLE_UNIT ( ) );
#19 = DIRECTION ( 'NONE',  ( -3.491481338843133355E-15, 1.224646799147353207E-16, -1.000000000000000000 ) ) ;
#20 = ORIENTED_EDGE ( 'NONE', *, *, #1, .F. ) ;
#21 = PERSON_AND_ORGANIZATION ( #223, #48 ) ;
#22 = DATE_AND_TIME ( #110, #13 ) ;
#23 = CARTESIAN_POINT ( 'NONE',  ( 1.047444401652940007E-13, 0.5499999999999953815, 30.00000000000000000 ) ) ;
#24 = CIRCLE ( 'NONE', #98, 0.7499999999999976685 ) ;
#25 = CARTESIAN_POINT ( 'NONE',  ( 3.564050415713791566E-14, -1.250100604876750768E-15, 10.20784609690826450 ) ) ;
#26 = PERSON_AND_ORGANIZATION ( #223, #48 ) ;
#27 = AXIS2_PLACEMENT_3D ( 'NONE', #118, #190, #53 ) ;
#28 = APPROVAL_STATUS ( 'not_yet_approved' ) ;
#29 = APPROVAL_DATE_TIME ( #55, #198 ) ;
#30 = AXIS2_PLACEMENT_3D ( 'NONE', #50, #56, #122 ) ;
#31 = CC_DESIGN_APPROVAL ( #57, ( #195 ) ) ;
#32 = DIRECTION ( 'NONE',  ( -3.491481338843133355E-15, 1.224646799147353207E-16, -1.000000000000000000 ) ) ;
#33 = PLANE ( 'NONE',  #109 ) ;
#34 = CC_DESIGN_PERSON_AND_ORGANIZATION_ASSIGNMENT ( #77, #147, ( #151 ) ) ;
#35 = DATE_TIME_ROLE ( 'creation_date' ) ;
#36 = ADVANCED_FACE ( 'NONE', ( #172 ), #89, .F. ) ;
#37 = ORIENTED_EDGE ( 'NONE', *, *, #16, .F. ) ;
#38 = MECHANICAL_CONTEXT ( 'NONE', #177, 'mechanical' ) ;
#39 = AXIS2_PLACEMENT_3D ( 'NONE', #129, #105, #214 ) ;
#40 = COORDINATED_UNIVERSAL_TIME_OFFSET ( 1, 0, .AHEAD. ) ;
#41 = EDGE_LOOP ( 'NONE', ( #119 ) ) ;
#42 = APPLICATION_PROTOCOL_DEFINITION ( 'international standard', 'config_control_design', 1994, #128 ) ;
#43 = ORIENTED_EDGE ( 'NONE', *, *, #1, .T. ) ;
#44 = APPROVAL_STATUS ( 'not_yet_approved' ) ;
#45 = CONICAL_SURFACE ( 'NONE', #162, 0.7499999999999976685, 0.5235987755982930425 ) ;
#46 = ORIENTED_EDGE ( 'NONE', *, *, #203, .T. ) ;
#47 = COORDINATED_UNIVERSAL_TIME_OFFSET ( 1, 0, .AHEAD. ) ;
#48 = ORGANIZATION ( 'UNSPECIFIED', 'UNSPECIFIED', '' ) ;
#49 = CC_DESIGN_PERSON_AND_ORGANIZATION_ASSIGNMENT ( #112, #182, ( #151 ) ) ;
#50 = CARTESIAN_POINT ( 'NONE',  ( 3.491481338843133986E-14, -1.224646799147353454E-15, 10.00000000000000178 ) ) ;
#51 = AXIS2_PLACEMENT_3D ( 'NONE', #80, #32, #63 ) ;
#52 = CARTESIAN_POINT ( 'NONE',  ( 1.321672992305702268E-15, 0.6299999999999987832, 0.3785421899873665508 ) ) ;
#53 = DIRECTION ( 'NONE',  ( 0.0000000000000000000, 1.000000000000000000, 0.0000000000000000000 ) ) ;
#54 = ADVANCED_FACE ( 'NONE', ( #145 ), #222, .T. ) ;
#55 = DATE_AND_TIME ( #209, #137 ) ;
#56 = DIRECTION ( 'NONE',  ( -3.491481338843133355E-15, 1.224646799147353207E-16, -1.000000000000000000 ) ) ;
#57 = APPROVAL ( #28, 'UNSPECIFIED' ) ;
#58 = CC_DESIGN_APPROVAL ( #168, ( #165 ) ) ;
#59 = EDGE_LOOP ( 'NONE', ( #217 ) ) ;
#60 = FACE_OUTER_BOUND ( 'NONE', #213, .T. ) ;
#61 = DIRECTION ( 'NONE',  ( -4.275831445896958607E-31, -1.000000000000000000, -1.224646799147353207E-16 ) ) ;
#62 = APPROVAL_DATE_TIME ( #219, #57 ) ;
#63 = DIRECTION ( 'NONE',  ( 4.275831445896958607E-31, 1.000000000000000000, 1.224646799147353454E-16 ) ) ;
#64 = FACE_BOUND ( 'NONE', #90, .T. ) ;
#65 = FACE_OUTER_BOUND ( 'NONE', #206, .T. ) ;
#66 = CARTESIAN_POINT ( 'NONE',  ( 3.491481338843133986E-14, -2.077181119106918979E-31, 10.00000000000000178 ) ) ;
#67 = DIRECTION ( 'NONE',  ( 0.0000000000000000000, -1.000000000000000000, 0.0000000000000000000 ) ) ;
#68 = CC_DESIGN_APPROVAL ( #198, ( #151 ) ) ;
#69 = PERSON_AND_ORGANIZATION ( #223, #48 ) ;
#70 = CARTESIAN_POINT ( 'NONE',  ( 1.321672992305702071E-15, -4.635804813102576021E-17, 0.3785421899873664953 ) ) ;
#71 = DIRECTION ( 'NONE',  ( -3.057031657757523226E-31, -1.000000000000000000, -8.604779146710369535E-17 ) ) ;
#72 = APPROVAL_ROLE ( '' ) ;
#73 = PERSON_AND_ORGANIZATION_ROLE ( 'creator' ) ;
#74 = ADVANCED_FACE ( 'NONE', ( #211, #111 ), #183, .T. ) ;
#75 = LOCAL_TIME ( 15, 46, 32.00000000000000000, #93 ) ;
#76 = ORIENTED_EDGE ( 'NONE', *, *, #203, .F. ) ;
#77 = PERSON_AND_ORGANIZATION ( #223, #48 ) ;
#78 = EDGE_CURVE ( 'NONE', #135, #135, #79, .T. ) ;
#79 = CIRCLE ( 'NONE', #12, 0.5499999999999990452 ) ;
#80 = CARTESIAN_POINT ( 'NONE',  ( 0.0000000000000000000, 0.0000000000000000000, 0.0000000000000000000 ) ) ;
#81 = FACE_OUTER_BOUND ( 'NONE', #188, .T. ) ;
#82 = CONICAL_SURFACE ( 'NONE', #205, 0.5499999999999990452, 0.7853981633974604915 ) ;
#83 = PLANE ( 'NONE',  #204 ) ;
#84 = CC_DESIGN_SECURITY_CLASSIFICATION ( #195, ( #151 ) ) ;
#85 = ADVANCED_FACE ( 'NONE', ( #221, #64 ), #82, .T. ) ;
#86 = CARTESIAN_POINT ( 'NONE',  ( 3.491481338843133986E-14, 0.6299999999999998934, 10.00000000000000178 ) ) ;
#87 = DATE_AND_TIME ( #144, #212 ) ;
#88 = CARTESIAN_POINT ( 'NONE',  ( 3.564050415713791566E-14, 0.7499999999999963363, 10.20784609690826450 ) ) ;
#89 = PLANE ( 'NONE',  #115 ) ;
#90 = EDGE_LOOP ( 'NONE', ( #192 ) ) ;
#91 = PRODUCT_RELATED_PRODUCT_CATEGORY ( 'detail', '', ( #157 ) ) ;
#92 = ORIENTED_EDGE ( 'NONE', *, *, #220, .F. ) ;
#93 = COORDINATED_UNIVERSAL_TIME_OFFSET ( 1, 0, .AHEAD. ) ;
#94 = ORIENTED_EDGE ( 'NONE', *, *, #220, .T. ) ;
#95 = PERSON_AND_ORGANIZATION ( #223, #48 ) ;
#96 = CIRCLE ( 'NONE', #27, 0.7499999999999992228 ) ;
#97 = UNCERTAINTY_MEASURE_WITH_UNIT (LENGTH_MEASURE( 1.000000000000000082E-05 ), #123, 'distance_accuracy_value', 'NONE');
#98 = AXIS2_PLACEMENT_3D ( 'NONE', #103, #3, #138 ) ;
#99 =( GEOMETRIC_REPRESENTATION_CONTEXT ( 3 ) GLOBAL_UNCERTAINTY_ASSIGNED_CONTEXT ( ( #97 ) ) GLOBAL_UNIT_ASSIGNED_CONTEXT ( ( #123, #191, #18 ) ) REPRESENTATION_CONTEXT ( 'NONE', 'WORKASPACE' ) );
#100 = DIRECTION ( 'NONE',  ( 0.0000000000000000000, 1.000000000000000000, 0.0000000000000000000 ) ) ;
#101 = VERTEX_POINT ( 'NONE', #86 ) ;
#102 = CC_DESIGN_PERSON_AND_ORGANIZATION_ASSIGNMENT ( #153, #120, ( #157 ) ) ;
#103 = CARTESIAN_POINT ( 'NONE',  ( 3.564050415713791566E-14, -1.250100604876750768E-15, 10.20784609690826450 ) ) ;
#104 = CLOSED_SHELL ( 'NONE', ( #187, #210, #146, #85, #36 ) ) ;
#105 = DIRECTION ( 'NONE',  ( -3.491481338843133355E-15, 1.224646799147353207E-16, -1.000000000000000000 ) ) ;
#106 = VERTEX_POINT ( 'NONE', #5 ) ;
#107 = DIRECTION ( 'NONE',  ( 3.057031657757523226E-31, 1.000000000000000000, 8.604779146710369535E-17 ) ) ;
#108 = VERTEX_POINT ( 'NONE', #88 ) ;
#109 = AXIS2_PLACEMENT_3D ( 'NONE', #133, #201, #215 ) ;
#110 = CALENDAR_DATE ( 2021, 7, 10 ) ;
#111 = FACE_OUTER_BOUND ( 'NONE', #148, .T. ) ;
#112 = PERSON_AND_ORGANIZATION ( #223, #48 ) ;
#113 = CYLINDRICAL_SURFACE ( 'NONE', #39, 0.7499999999999984457 ) ;
#114 = DATE_AND_TIME ( #130, #75 ) ;
#115 = AXIS2_PLACEMENT_3D ( 'NONE', #196, #154, #197 ) ;
#116 = DIRECTION ( 'NONE',  ( -3.491481338843133355E-15, 1.224646799147353207E-16, -1.000000000000000000 ) ) ;
#117 = CARTESIAN_POINT ( 'NONE',  ( 3.491481338843133986E-14, 0.6299999999999998934, 10.00000000000000178 ) ) ;
#118 = CARTESIAN_POINT ( 'NONE',  ( 1.040461438975253866E-13, -3.649447461459112464E-15, 29.80000000000000426 ) ) ;
#119 = ORIENTED_EDGE ( 'NONE', *, *, #78, .F. ) ;
#120 = PERSON_AND_ORGANIZATION_ROLE ( 'design_owner' ) ;
#121 = MANIFOLD_SOLID_BREP ( 'Corps-Déplacer/Copier1[1]', #104 ) ;
#122 = DIRECTION ( 'NONE',  ( 0.0000000000000000000, 1.000000000000000000, 0.0000000000000000000 ) ) ;
#123 =( LENGTH_UNIT ( ) NAMED_UNIT ( * ) SI_UNIT ( .MILLI., .METRE. ) );
#124 = DIRECTION ( 'NONE',  ( 0.0000000000000000000, 1.000000000000000000, 0.0000000000000000000 ) ) ;
#125 = LOCAL_TIME ( 15, 46, 32.00000000000000000, #47 ) ;
#126 = CC_DESIGN_DATE_AND_TIME_ASSIGNMENT ( #87, #35, ( #165 ) ) ;
#127 = DIRECTION ( 'NONE',  ( -3.491481338843133355E-15, 1.224646799147353207E-16, -1.000000000000000000 ) ) ;
#128 = APPLICATION_CONTEXT ( 'configuration controlled 3d designs of mechanical parts and assemblies' ) ;
#129 = CARTESIAN_POINT ( 'NONE',  ( 0.0000000000000000000, 0.0000000000000000000, 0.0000000000000000000 ) ) ;
#130 = CALENDAR_DATE ( 2021, 7, 10 ) ;
#131 = ADVANCED_FACE ( 'NONE', ( #81 ), #83, .T. ) ;
#132 = AXIS2_PLACEMENT_3D ( 'NONE', #70, #193, #107 ) ;
#133 = CARTESIAN_POINT ( 'NONE',  ( 3.491481338843133986E-14, -2.077181119106918979E-31, 10.00000000000000178 ) ) ;
#134 = DIRECTION ( 'NONE',  ( 3.491481338843133355E-15, -1.224646799147353207E-16, 1.000000000000000000 ) ) ;
#135 = VERTEX_POINT ( 'NONE', #23 ) ;
#136 = CIRCLE ( 'NONE', #30, 0.6300000000000011147 ) ;
#137 = LOCAL_TIME ( 15, 46, 32.00000000000000000, #141 ) ;
#138 = DIRECTION ( 'NONE',  ( 0.0000000000000000000, 1.000000000000000000, 0.0000000000000000000 ) ) ;
#139 = PERSON_AND_ORGANIZATION ( #223, #48 ) ;
#140 = FACE_OUTER_BOUND ( 'NONE', #59, .T. ) ;
#141 = COORDINATED_UNIVERSAL_TIME_OFFSET ( 1, 0, .AHEAD. ) ;
#142 = CC_DESIGN_PERSON_AND_ORGANIZATION_ASSIGNMENT ( #69, #73, ( #165 ) ) ;
#143 = ORIENTED_EDGE ( 'NONE', *, *, #171, .F. ) ;
#144 = CALENDAR_DATE ( 2021, 7, 10 ) ;
#145 = FACE_OUTER_BOUND ( 'NONE', #9, .T. ) ;
#146 = ADVANCED_FACE ( 'NONE', ( #218, #60 ), #113, .T. ) ;
#147 = PERSON_AND_ORGANIZATION_ROLE ( 'design_supplier' ) ;
#148 = EDGE_LOOP ( 'NONE', ( #46 ) ) ;
#149 = CIRCLE ( 'NONE', #184, 0.6300000000000011147 ) ;
#150 = CARTESIAN_POINT ( 'NONE',  ( 0.0000000000000000000, 0.0000000000000000000, 0.0000000000000000000 ) ) ;
#151 = PRODUCT_DEFINITION_FORMATION_WITH_SPECIFIED_SOURCE ( 'ANY', '', #157, .NOT_KNOWN. ) ;
#152 = COORDINATED_UNIVERSAL_TIME_OFFSET ( 1, 0, .AHEAD. ) ;
#153 = PERSON_AND_ORGANIZATION ( #223, #48 ) ;
#154 = DIRECTION ( 'NONE',  ( -3.491481338843133355E-15, 1.224646799147353207E-16, -1.000000000000000000 ) ) ;
#155 = APPROVAL_ROLE ( '' ) ;
#156 = CARTESIAN_POINT ( 'NONE',  ( 3.491481338843133986E-14, -1.224646799147353454E-15, 10.00000000000000178 ) ) ;
#157 = PRODUCT ( '27862', '27862', '', ( #38 ) ) ;
#158 = EDGE_LOOP ( 'NONE', ( #20 ) ) ;
#159 = DATE_TIME_ROLE ( 'classification_date' ) ;
#160 = PERSON_AND_ORGANIZATION_ROLE ( 'classification_officer' ) ;
#161 = FACE_BOUND ( 'NONE', #169, .T. ) ;
#162 = AXIS2_PLACEMENT_3D ( 'NONE', #25, #202, #67 ) ;
#163 = AXIS2_PLACEMENT_3D ( 'NONE', #150, #8, #186 ) ;
#164 = CARTESIAN_POINT ( 'NONE',  ( 1.047444401652940007E-13, -3.673940397442059178E-15, 30.00000000000000000 ) ) ;
#165 = PRODUCT_DEFINITION ( 'UNKNOWN', '', #151, #194 ) ;
#166 = ADVANCED_BREP_SHAPE_REPRESENTATION ( '27862', ( #121, #199, #163 ), #99 ) ;
#167 = VERTEX_POINT ( 'NONE', #117 ) ;
#168 = APPROVAL ( #44, 'UNSPECIFIED' ) ;
#169 = EDGE_LOOP ( 'NONE', ( #92 ) ) ;
#170 = APPROVAL_PERSON_ORGANIZATION ( #139, #198, #155 ) ;
#171 = EDGE_CURVE ( 'NONE', #173, #173, #17, .T. ) ;
#172 = FACE_OUTER_BOUND ( 'NONE', #41, .T. ) ;
#173 = VERTEX_POINT ( 'NONE', #52 ) ;
#174 = AXIS2_PLACEMENT_3D ( 'NONE', #6, #178, #71 ) ;
#175 = APPROVAL_STATUS ( 'not_yet_approved' ) ;
#176 = SECURITY_CLASSIFICATION_LEVEL ( 'unclassified' ) ;
#177 = APPLICATION_CONTEXT ( 'configuration controlled 3d designs of mechanical parts and assemblies' ) ;
#178 = DIRECTION ( 'NONE',  ( 3.491481338843133355E-15, -1.224646799147353207E-16, 1.000000000000000000 ) ) ;
#179 = CALENDAR_DATE ( 2021, 7, 10 ) ;
#180 = SHAPE_DEFINITION_REPRESENTATION ( #181, #166 ) ;
#181 = PRODUCT_DEFINITION_SHAPE ( 'NONE', 'NONE',  #165 ) ;
#182 = PERSON_AND_ORGANIZATION_ROLE ( 'creator' ) ;
#183 = CYLINDRICAL_SURFACE ( 'NONE', #51, 0.6299999999999998934 ) ;
#184 = AXIS2_PLACEMENT_3D ( 'NONE', #156, #127, #124 ) ;
#185 = APPROVAL_PERSON_ORGANIZATION ( #21, #168, #72 ) ;
#186 = DIRECTION ( 'NONE',  ( 1.000000000000000000, 0.0000000000000000000, 0.0000000000000000000 ) ) ;
#187 = ADVANCED_FACE ( 'NONE', ( #65 ), #33, .F. ) ;
#188 = EDGE_LOOP ( 'NONE', ( #76 ) ) ;
#189 = ORIENTED_EDGE ( 'NONE', *, *, #171, .T. ) ;
#190 = DIRECTION ( 'NONE',  ( -3.491481338843133355E-15, 1.224646799147353207E-16, -1.000000000000000000 ) ) ;
#191 =( NAMED_UNIT ( * ) PLANE_ANGLE_UNIT ( ) SI_UNIT ( $, .RADIAN. ) );
#192 = ORIENTED_EDGE ( 'NONE', *, *, #78, .T. ) ;
#193 = DIRECTION ( 'NONE',  ( -3.491481338843133355E-15, 1.224646799147353207E-16, -1.000000000000000000 ) ) ;
#194 = DESIGN_CONTEXT ( 'detailed design', #128, 'design' ) ;
#195 = SECURITY_CLASSIFICATION ( '', '', #176 ) ;
#196 = CARTESIAN_POINT ( 'NONE',  ( 1.047444401652940007E-13, 4.124339402320045473E-33, 30.00000000000000000 ) ) ;
#197 = DIRECTION ( 'NONE',  ( 4.275831445896958607E-31, 1.000000000000000000, 1.224646799147353207E-16 ) ) ;
#198 = APPROVAL ( #175, 'UNSPECIFIED' ) ;
#199 = MANIFOLD_SOLID_BREP ( 'Corps-Déplacer/Copier1[2]', #200 ) ;
#200 = CLOSED_SHELL ( 'NONE', ( #54, #74, #131 ) ) ;
#201 = DIRECTION ( 'NONE',  ( 3.491481338843133355E-15, -1.224646799147353207E-16, 1.000000000000000000 ) ) ;
#202 = DIRECTION ( 'NONE',  ( 3.491481338843133355E-15, -1.224646799147353207E-16, 1.000000000000000000 ) ) ;
#203 = EDGE_CURVE ( 'NONE', #101, #101, #149, .T. ) ;
#204 = AXIS2_PLACEMENT_3D ( 'NONE', #66, #134, #61 ) ;
#205 = AXIS2_PLACEMENT_3D ( 'NONE', #164, #19, #15 ) ;
#206 = EDGE_LOOP ( 'NONE', ( #94 ) ) ;
#207 = EDGE_LOOP ( 'NONE', ( #143 ) ) ;
#208 = APPLICATION_PROTOCOL_DEFINITION ( 'international standard', 'config_control_design', 1994, #177 ) ;
#209 = CALENDAR_DATE ( 2021, 7, 10 ) ;
#210 = ADVANCED_FACE ( 'NONE', ( #161, #140 ), #45, .T. ) ;
#211 = FACE_OUTER_BOUND ( 'NONE', #207, .T. ) ;
#212 = LOCAL_TIME ( 15, 46, 32.00000000000000000, #40 ) ;
#213 = EDGE_LOOP ( 'NONE', ( #43 ) ) ;
#214 = DIRECTION ( 'NONE',  ( 4.275831445896958607E-31, 1.000000000000000000, 1.224646799147353454E-16 ) ) ;
#215 = DIRECTION ( 'NONE',  ( -4.275831445896958607E-31, -1.000000000000000000, -1.224646799147353207E-16 ) ) ;
#216 = CC_DESIGN_DATE_AND_TIME_ASSIGNMENT ( #114, #159, ( #195 ) ) ;
#217 = ORIENTED_EDGE ( 'NONE', *, *, #16, .T. ) ;
#218 = FACE_OUTER_BOUND ( 'NONE', #7, .T. ) ;
#219 = DATE_AND_TIME ( #179, #125 ) ;
#220 = EDGE_CURVE ( 'NONE', #167, #167, #136, .T. ) ;
#221 = FACE_OUTER_BOUND ( 'NONE', #158, .T. ) ;
#222 = CONICAL_SURFACE ( 'NONE', #174, 0.6299999999999987832, 1.029744258676649649 ) ;
#223 = PERSON ( 'UNSPECIFIED', 'UNSPECIFIED', 'UNSPECIFIED', ('UNSPECIFIED'), ('UNSPECIFIED'), ('UNSPECIFIED') ) ;
ENDSEC;
END-ISO-10303-21;
