ISO-10303-21;
HEADER;
FILE_DESCRIPTION (( 'STEP AP203' ),
    '1' );
FILE_NAME ('27851.step',
    '2021-11-22T09:04:27',
    ( '' ),
    ( '' ),
    'SwSTEP 2.0',
    'SolidWorks 2019',
    '' );
FILE_SCHEMA (( 'CONFIG_CONTROL_DESIGN' ));
ENDSEC;

DATA;
#1 = FACE_OUTER_BOUND ( 'NONE', #106, .T. ) ;
#2 = APPLICATION_PROTOCOL_DEFINITION ( 'international standard', 'config_control_design', 1994, #57 ) ;
#3 = CLOSED_SHELL ( 'NONE', ( #58, #112, #78, #178 ) ) ;
#4 = CALENDAR_DATE ( 2021, 22, 11 ) ;
#5 = DIRECTION ( 'NONE',  ( 0.0000000000000000000, 1.000000000000000000, 0.0000000000000000000 ) ) ;
#6 = DIRECTION ( 'NONE',  ( -3.491481338843133355E-15, 1.224646799147353207E-16, -1.000000000000000000 ) ) ;
#7 = PRODUCT_DEFINITION ( 'UNKNOWN', '', #76, #31 ) ;
#8 = DIRECTION ( 'NONE',  ( -3.491481338843133355E-15, 1.224646799147353207E-16, -1.000000000000000000 ) ) ;
#9 = DIRECTION ( 'NONE',  ( 4.275831445896958607E-31, 1.000000000000000000, 1.224646799147353207E-16 ) ) ;
#10 = PRODUCT ( '27851', '27851', '', ( #66 ) ) ;
#11 = PRODUCT_RELATED_PRODUCT_CATEGORY ( 'detail', '', ( #10 ) ) ;
#12 = COORDINATED_UNIVERSAL_TIME_OFFSET ( 1, 0, .AHEAD. ) ;
#13 = LOCAL_TIME ( 10, 4, 27.00000000000000000, #12 ) ;
#14 = DATE_AND_TIME ( #180, #13 ) ;
#15 = VERTEX_POINT ( 'NONE', #128 ) ;
#16 = LOCAL_TIME ( 10, 4, 27.00000000000000000, #17 ) ;
#17 = COORDINATED_UNIVERSAL_TIME_OFFSET ( 1, 0, .AHEAD. ) ;
#18 = DATE_AND_TIME ( #4, #16 ) ;
#19 = DIRECTION ( 'NONE',  ( 0.0000000000000000000, 1.000000000000000000, 0.0000000000000000000 ) ) ;
#20 = EDGE_CURVE ( 'NONE', #15, #15, #56, .T. ) ;
#21 = DIRECTION ( 'NONE',  ( -3.491481338843133355E-15, 1.224646799147353207E-16, -1.000000000000000000 ) ) ;
#22 = CARTESIAN_POINT ( 'NONE',  ( -8.551662891793915461E-31, 2.999519565323715216E-32, -2.449293598294706414E-16 ) ) ;
#23 = EDGE_LOOP ( 'NONE', ( #83 ) ) ;
#24 = LOCAL_TIME ( 10, 4, 27.00000000000000000, #79 ) ;
#25 = APPROVAL_DATE_TIME ( #151, #183 ) ;
#26 = APPROVAL ( #114, 'UNSPECIFIED' ) ;
#27 = COORDINATED_UNIVERSAL_TIME_OFFSET ( 1, 0, .AHEAD. ) ;
#28 = SECURITY_CLASSIFICATION_LEVEL ( 'unclassified' ) ;
#29 = DIRECTION ( 'NONE',  ( -3.491481338843133355E-15, 1.224646799147353207E-16, -1.000000000000000000 ) ) ;
#30 = LOCAL_TIME ( 10, 4, 27.00000000000000000, #27 ) ;
#31 = DESIGN_CONTEXT ( 'detailed design', #164, 'design' ) ;
#32 = CYLINDRICAL_SURFACE ( 'NONE', #86, 4.000000000000000000 ) ;
#33 = DATE_AND_TIME ( #99, #24 ) ;
#34 = AXIS2_PLACEMENT_3D ( 'NONE', #48, #29, #96 ) ;
#35 = EDGE_CURVE ( 'NONE', #98, #98, #82, .T. ) ;
#36 = FACE_OUTER_BOUND ( 'NONE', #23, .T. ) ;
#37 = DIRECTION ( 'NONE',  ( -3.491481338843133355E-15, 1.224646799147353207E-16, -1.000000000000000000 ) ) ;
#38 = PRODUCT_DEFINITION_SHAPE ( 'NONE', 'NONE',  #7 ) ;
#39 = ORIENTED_EDGE ( 'NONE', *, *, #35, .T. ) ;
#40 = LOCAL_TIME ( 10, 4, 27.00000000000000000, #74 ) ;
#41 = EDGE_LOOP ( 'NONE', ( #88 ) ) ;
#42 = DIRECTION ( 'NONE',  ( 4.275831445896958607E-31, 1.000000000000000000, 1.224646799147353207E-16 ) ) ;
#43 = EDGE_LOOP ( 'NONE', ( #145 ) ) ;
#44 = DATE_TIME_ROLE ( 'classification_date' ) ;
#45 = EDGE_CURVE ( 'NONE', #169, #169, #105, .T. ) ;
#46 = PERSON_AND_ORGANIZATION_ROLE ( 'creator' ) ;
#47 = PERSON_AND_ORGANIZATION ( #194, #121 ) ;
#48 = CARTESIAN_POINT ( 'NONE',  ( 2.618611004132350143E-13, 2.399615652258958488E-32, 75.00000000000000000 ) ) ;
#49 = FACE_OUTER_BOUND ( 'NONE', #69, .T. ) ;
#50 = EDGE_CURVE ( 'NONE', #113, #113, #156, .T. ) ;
#51 = CARTESIAN_POINT ( 'NONE',  ( 0.0000000000000000000, 0.0000000000000000000, 0.0000000000000000000 ) ) ;
#52 = FACE_OUTER_BOUND ( 'NONE', #124, .T. ) ;
#53 = CARTESIAN_POINT ( 'NONE',  ( 8.728703347107833388E-14, 2.999519565323710837E-32, 25.00000000000000000 ) ) ;
#54 = EDGE_LOOP ( 'NONE', ( #123 ) ) ;
#55 = DIRECTION ( 'NONE',  ( 3.491481338843133355E-15, -1.224646799147353207E-16, 1.000000000000000000 ) ) ;
#56 = CIRCLE ( 'NONE', #168, 4.000000000000000000 ) ;
#57 = APPLICATION_CONTEXT ( 'configuration controlled 3d designs of mechanical parts and assemblies' ) ;
#58 = ADVANCED_FACE ( 'NONE', ( #101 ), #71, .F. ) ;
#59 = APPROVAL_ROLE ( '' ) ;
#60 = AXIS2_PLACEMENT_3D ( 'NONE', #134, #103, #135 ) ;
#61 = APPROVAL_PERSON_ORGANIZATION ( #127, #26, #81 ) ;
#62 = CARTESIAN_POINT ( 'NONE',  ( 2.590679153421605076E-13, 3.999999999999991562, 74.20000000000000284 ) ) ;
#63 =( NAMED_UNIT ( * ) SI_UNIT ( $, .STERADIAN. ) SOLID_ANGLE_UNIT ( ) );
#64 = CC_DESIGN_PERSON_AND_ORGANIZATION_ASSIGNMENT ( #47, #46, ( #76 ) ) ;
#65 = CARTESIAN_POINT ( 'NONE',  ( 8.728703347107833388E-14, 3.999999999999996447, 25.00000000000000000 ) ) ;
#66 = MECHANICAL_CONTEXT ( 'NONE', #57, 'mechanical' ) ;
#67 = DIRECTION ( 'NONE',  ( 4.275831445896958607E-31, 1.000000000000000000, 1.224646799147353207E-16 ) ) ;
#68 = ORIENTED_EDGE ( 'NONE', *, *, #20, .T. ) ;
#69 = EDGE_LOOP ( 'NONE', ( #148 ) ) ;
#70 = AXIS2_PLACEMENT_3D ( 'NONE', #161, #55, #174 ) ;
#71 = PLANE ( 'NONE',  #75 ) ;
#72 = CYLINDRICAL_SURFACE ( 'NONE', #133, 4.000000000000000000 ) ;
#73 = CC_DESIGN_PERSON_AND_ORGANIZATION_ASSIGNMENT ( #141, #158, ( #7 ) ) ;
#74 = COORDINATED_UNIVERSAL_TIME_OFFSET ( 1, 0, .AHEAD. ) ;
#75 = AXIS2_PLACEMENT_3D ( 'NONE', #53, #177, #85 ) ;
#76 = PRODUCT_DEFINITION_FORMATION_WITH_SPECIFIED_SOURCE ( 'ANY', '', #10, .NOT_KNOWN. ) ;
#77 = VERTEX_POINT ( 'NONE', #203 ) ;
#78 = ADVANCED_FACE ( 'NONE', ( #175, #192 ), #139, .T. ) ;
#79 = COORDINATED_UNIVERSAL_TIME_OFFSET ( 1, 0, .AHEAD. ) ;
#80 = DIRECTION ( 'NONE',  ( 0.0000000000000000000, 1.000000000000000000, 0.0000000000000000000 ) ) ;
#81 = APPROVAL_ROLE ( '' ) ;
#82 = CIRCLE ( 'NONE', #195, 4.000000000000000000 ) ;
#83 = ORIENTED_EDGE ( 'NONE', *, *, #45, .T. ) ;
#84 = CARTESIAN_POINT ( 'NONE',  ( 0.0000000000000000000, 0.0000000000000000000, 0.0000000000000000000 ) ) ;
#85 = DIRECTION ( 'NONE',  ( -4.275831445896958607E-31, -1.000000000000000000, -1.224646799147353207E-16 ) ) ;
#86 = AXIS2_PLACEMENT_3D ( 'NONE', #140, #182, #67 ) ;
#87 = ADVANCED_FACE ( 'NONE', ( #160 ), #146, .T. ) ;
#88 = ORIENTED_EDGE ( 'NONE', *, *, #50, .F. ) ;
#89 = ORIENTED_EDGE ( 'NONE', *, *, #20, .F. ) ;
#90 = AXIS2_PLACEMENT_3D ( 'NONE', #176, #37, #19 ) ;
#91 = EDGE_LOOP ( 'NONE', ( #39 ) ) ;
#92 = CALENDAR_DATE ( 2021, 22, 11 ) ;
#93 = CALENDAR_DATE ( 2021, 22, 11 ) ;
#94 = CLOSED_SHELL ( 'NONE', ( #95, #150, #87 ) ) ;
#95 = ADVANCED_FACE ( 'NONE', ( #52 ), #120, .T. ) ;
#96 = DIRECTION ( 'NONE',  ( 4.275831445896958607E-31, 1.000000000000000000, 1.224646799147353207E-16 ) ) ;
#97 = CIRCLE ( 'NONE', #173, 3.199999999999999734 ) ;
#98 = VERTEX_POINT ( 'NONE', #65 ) ;
#99 = CALENDAR_DATE ( 2021, 22, 11 ) ;
#100 = FACE_OUTER_BOUND ( 'NONE', #41, .T. ) ;
#101 = FACE_OUTER_BOUND ( 'NONE', #43, .T. ) ;
#102 = CC_DESIGN_PERSON_AND_ORGANIZATION_ASSIGNMENT ( #107, #196, ( #76 ) ) ;
#103 = DIRECTION ( 'NONE',  ( -3.491481338843133355E-15, 1.224646799147353207E-16, -1.000000000000000000 ) ) ;
#104 = CC_DESIGN_SECURITY_CLASSIFICATION ( #129, ( #76 ) ) ;
#105 = CIRCLE ( 'NONE', #90, 4.000000000000000000 ) ;
#106 = EDGE_LOOP ( 'NONE', ( #89 ) ) ;
#107 = PERSON_AND_ORGANIZATION ( #194, #121 ) ;
#108 = CC_DESIGN_APPROVAL ( #109, ( #129 ) ) ;
#109 = APPROVAL ( #137, 'UNSPECIFIED' ) ;
#110 = SHAPE_DEFINITION_REPRESENTATION ( #38, #202 ) ;
#111 = PERSON_AND_ORGANIZATION ( #194, #121 ) ;
#112 = ADVANCED_FACE ( 'NONE', ( #36, #100 ), #72, .T. ) ;
#113 = VERTEX_POINT ( 'NONE', #159 ) ;
#114 = APPROVAL_STATUS ( 'not_yet_approved' ) ;
#115 = AXIS2_PLACEMENT_3D ( 'NONE', #51, #184, #142 ) ;
#116 = UNCERTAINTY_MEASURE_WITH_UNIT (LENGTH_MEASURE( 1.000000000000000082E-05 ), #130, 'distance_accuracy_value', 'NONE');
#117 = AXIS2_PLACEMENT_3D ( 'NONE', #144, #188, #163 ) ;
#118 = PERSON_AND_ORGANIZATION_ROLE ( 'design_owner' ) ;
#119 = DIRECTION ( 'NONE',  ( -3.491481338843133355E-15, 1.224646799147353207E-16, -1.000000000000000000 ) ) ;
#120 = PLANE ( 'NONE',  #162 ) ;
#121 = ORGANIZATION ( 'UNSPECIFIED', 'UNSPECIFIED', '' ) ;
#122 = CC_DESIGN_PERSON_AND_ORGANIZATION_ASSIGNMENT ( #143, #118, ( #10 ) ) ;
#123 = ORIENTED_EDGE ( 'NONE', *, *, #35, .F. ) ;
#124 = EDGE_LOOP ( 'NONE', ( #68 ) ) ;
#125 = CARTESIAN_POINT ( 'NONE',  ( -1.710332578358783092E-30, 5.999039130647430431E-32, -4.898587196589412829E-16 ) ) ;
#126 = DATE_TIME_ROLE ( 'creation_date' ) ;
#127 = PERSON_AND_ORGANIZATION ( #194, #121 ) ;
#128 = CARTESIAN_POINT ( 'NONE',  ( 3.421138828918010427E-46, 4.000000000000000000, 0.0000000000000000000 ) ) ;
#129 = SECURITY_CLASSIFICATION ( '', '', #28 ) ;
#130 =( LENGTH_UNIT ( ) NAMED_UNIT ( * ) SI_UNIT ( .MILLI., .METRE. ) );
#131 = EDGE_LOOP ( 'NONE', ( #149 ) ) ;
#132 = EDGE_LOOP ( 'NONE', ( #165 ) ) ;
#133 = AXIS2_PLACEMENT_3D ( 'NONE', #84, #193, #42 ) ;
#134 = CARTESIAN_POINT ( 'NONE',  ( 8.728703347107833388E-14, -3.061616997868383043E-15, 25.00000000000000000 ) ) ;
#135 = DIRECTION ( 'NONE',  ( 0.0000000000000000000, 1.000000000000000000, 0.0000000000000000000 ) ) ;
#136 = MANIFOLD_SOLID_BREP ( 'Corps-Déplacer/Copier1[2]', #94 ) ;
#137 = APPROVAL_STATUS ( 'not_yet_approved' ) ;
#138 = APPROVAL_DATE_TIME ( #152, #109 ) ;
#139 = CONICAL_SURFACE ( 'NONE', #117, 4.000000000000000000, 0.7853981633974516097 ) ;
#140 = CARTESIAN_POINT ( 'NONE',  ( 0.0000000000000000000, 0.0000000000000000000, 0.0000000000000000000 ) ) ;
#141 = PERSON_AND_ORGANIZATION ( #194, #121 ) ;
#142 = DIRECTION ( 'NONE',  ( 1.000000000000000000, 0.0000000000000000000, 0.0000000000000000000 ) ) ;
#143 = PERSON_AND_ORGANIZATION ( #194, #121 ) ;
#144 = CARTESIAN_POINT ( 'NONE',  ( 2.590679153421605076E-13, -9.086879249673360299E-15, 74.20000000000000284 ) ) ;
#145 = ORIENTED_EDGE ( 'NONE', *, *, #50, .T. ) ;
#146 = PLANE ( 'NONE',  #70 ) ;
#147 = DIRECTION ( 'NONE',  ( 4.275831445896958607E-31, 1.000000000000000000, 1.224646799147353207E-16 ) ) ;
#148 = ORIENTED_EDGE ( 'NONE', *, *, #170, .F. ) ;
#149 = ORIENTED_EDGE ( 'NONE', *, *, #45, .F. ) ;
#150 = ADVANCED_FACE ( 'NONE', ( #185, #1 ), #32, .T. ) ;
#151 = DATE_AND_TIME ( #92, #30 ) ;
#152 = DATE_AND_TIME ( #93, #40 ) ;
#153 = APPROVAL_PERSON_ORGANIZATION ( #111, #183, #59 ) ;
#154 = APPROVAL_STATUS ( 'not_yet_approved' ) ;
#155 = CARTESIAN_POINT ( 'NONE',  ( 2.618611004132350143E-13, -9.184850993605148733E-15, 75.00000000000000000 ) ) ;
#156 = CIRCLE ( 'NONE', #60, 4.000000000000000000 ) ;
#157 = CC_DESIGN_DATE_AND_TIME_ASSIGNMENT ( #14, #44, ( #129 ) ) ;
#158 = PERSON_AND_ORGANIZATION_ROLE ( 'creator' ) ;
#159 = CARTESIAN_POINT ( 'NONE',  ( 8.728703347107833388E-14, 3.999999999999996447, 25.00000000000000000 ) ) ;
#160 = FACE_OUTER_BOUND ( 'NONE', #54, .T. ) ;
#161 = CARTESIAN_POINT ( 'NONE',  ( 8.728703347107833388E-14, 2.999519565323710837E-32, 25.00000000000000000 ) ) ;
#162 = AXIS2_PLACEMENT_3D ( 'NONE', #22, #21, #147 ) ;
#163 = DIRECTION ( 'NONE',  ( 0.0000000000000000000, 1.000000000000000000, 0.0000000000000000000 ) ) ;
#164 = APPLICATION_CONTEXT ( 'configuration controlled 3d designs of mechanical parts and assemblies' ) ;
#165 = ORIENTED_EDGE ( 'NONE', *, *, #170, .T. ) ;
#166 = CC_DESIGN_APPROVAL ( #26, ( #7 ) ) ;
#167 = PERSON_AND_ORGANIZATION_ROLE ( 'classification_officer' ) ;
#168 = AXIS2_PLACEMENT_3D ( 'NONE', #125, #8, #9 ) ;
#169 = VERTEX_POINT ( 'NONE', #62 ) ;
#170 = EDGE_CURVE ( 'NONE', #77, #77, #97, .T. ) ;
#171 = APPLICATION_PROTOCOL_DEFINITION ( 'international standard', 'config_control_design', 1994, #164 ) ;
#172 = PLANE ( 'NONE',  #34 ) ;
#173 = AXIS2_PLACEMENT_3D ( 'NONE', #155, #119, #80 ) ;
#174 = DIRECTION ( 'NONE',  ( -4.275831445896958607E-31, -1.000000000000000000, -1.224646799147353207E-16 ) ) ;
#175 = FACE_BOUND ( 'NONE', #132, .T. ) ;
#176 = CARTESIAN_POINT ( 'NONE',  ( 2.590679153421605076E-13, -9.086879249673360299E-15, 74.20000000000000284 ) ) ;
#177 = DIRECTION ( 'NONE',  ( 3.491481338843133355E-15, -1.224646799147353207E-16, 1.000000000000000000 ) ) ;
#178 = ADVANCED_FACE ( 'NONE', ( #49 ), #172, .F. ) ;
#179 = PERSON_AND_ORGANIZATION ( #194, #121 ) ;
#180 = CALENDAR_DATE ( 2021, 22, 11 ) ;
#181 = APPROVAL_ROLE ( '' ) ;
#182 = DIRECTION ( 'NONE',  ( -3.491481338843133355E-15, 1.224646799147353207E-16, -1.000000000000000000 ) ) ;
#183 = APPROVAL ( #154, 'UNSPECIFIED' ) ;
#184 = DIRECTION ( 'NONE',  ( 0.0000000000000000000, 0.0000000000000000000, 1.000000000000000000 ) ) ;
#185 = FACE_OUTER_BOUND ( 'NONE', #91, .T. ) ;
#186 =( GEOMETRIC_REPRESENTATION_CONTEXT ( 3 ) GLOBAL_UNCERTAINTY_ASSIGNED_CONTEXT ( ( #116 ) ) GLOBAL_UNIT_ASSIGNED_CONTEXT ( ( #130, #187, #63 ) ) REPRESENTATION_CONTEXT ( 'NONE', 'WORKASPACE' ) );
#187 =( NAMED_UNIT ( * ) PLANE_ANGLE_UNIT ( ) SI_UNIT ( $, .RADIAN. ) );
#188 = DIRECTION ( 'NONE',  ( -3.491481338843133355E-15, 1.224646799147353207E-16, -1.000000000000000000 ) ) ;
#189 = APPROVAL_PERSON_ORGANIZATION ( #198, #109, #181 ) ;
#190 = CARTESIAN_POINT ( 'NONE',  ( 8.728703347107833388E-14, -3.061616997868383043E-15, 25.00000000000000000 ) ) ;
#191 = CC_DESIGN_PERSON_AND_ORGANIZATION_ASSIGNMENT ( #179, #167, ( #129 ) ) ;
#192 = FACE_OUTER_BOUND ( 'NONE', #131, .T. ) ;
#193 = DIRECTION ( 'NONE',  ( -3.491481338843133355E-15, 1.224646799147353207E-16, -1.000000000000000000 ) ) ;
#194 = PERSON ( 'UNSPECIFIED', 'UNSPECIFIED', 'UNSPECIFIED', ('UNSPECIFIED'), ('UNSPECIFIED'), ('UNSPECIFIED') ) ;
#195 = AXIS2_PLACEMENT_3D ( 'NONE', #190, #6, #5 ) ;
#196 = PERSON_AND_ORGANIZATION_ROLE ( 'design_supplier' ) ;
#197 = CC_DESIGN_APPROVAL ( #183, ( #76 ) ) ;
#198 = PERSON_AND_ORGANIZATION ( #194, #121 ) ;
#199 = MANIFOLD_SOLID_BREP ( 'Corps-Déplacer/Copier1[1]', #3 ) ;
#200 = APPROVAL_DATE_TIME ( #33, #26 ) ;
#201 = CC_DESIGN_DATE_AND_TIME_ASSIGNMENT ( #18, #126, ( #7 ) ) ;
#202 = ADVANCED_BREP_SHAPE_REPRESENTATION ( '27851', ( #199, #136, #115 ), #186 ) ;
#203 = CARTESIAN_POINT ( 'NONE',  ( 2.618611004132350143E-13, 3.199999999999990408, 75.00000000000000000 ) ) ;
ENDSEC;
END-ISO-10303-21;
