ISO-10303-21;
HEADER;
FILE_DESCRIPTION (( 'STEP AP203' ),
    '1' );
FILE_NAME ('27781.step',
    '2021-11-01T10:35:04',
    ( '' ),
    ( '' ),
    'SwSTEP 2.0',
    'SolidWorks 2019',
    '' );
FILE_SCHEMA (( 'CONFIG_CONTROL_DESIGN' ));
ENDSEC;

DATA;
#1 = EDGE_LOOP ( 'NONE', ( #114 ) ) ;
#2 = APPROVAL_ROLE ( '' ) ;
#3 = PERSON ( 'UNSPECIFIED', 'UNSPECIFIED', 'UNSPECIFIED', ('UNSPECIFIED'), ('UNSPECIFIED'), ('UNSPECIFIED') ) ;
#4 = FACE_OUTER_BOUND ( 'NONE', #86, .T. ) ;
#5 = CARTESIAN_POINT ( 'NONE',  ( 7.681258945454893382E-14, 6.999999999999992895, 22.00000000000000000 ) ) ;
#6 = DIRECTION ( 'NONE',  ( 0.0000000000000000000, 1.000000000000000000, 0.0000000000000000000 ) ) ;
#7 = ADVANCED_FACE ( 'NONE', ( #35 ), #171, .F. ) ;
#8 = FACE_OUTER_BOUND ( 'NONE', #81, .T. ) ;
#9 = DIRECTION ( 'NONE',  ( 0.0000000000000000000, 1.000000000000000000, 0.0000000000000000000 ) ) ;
#10 = PERSON_AND_ORGANIZATION ( #3, #183 ) ;
#11 =( NAMED_UNIT ( * ) PLANE_ANGLE_UNIT ( ) SI_UNIT ( $, .RADIAN. ) );
#12 = APPROVAL_DATE_TIME ( #95, #128 ) ;
#13 = APPROVAL_STATUS ( 'not_yet_approved' ) ;
#14 = VERTEX_POINT ( 'NONE', #181 ) ;
#15 = AXIS2_PLACEMENT_3D ( 'NONE', #105, #23, #216 ) ;
#16 = COORDINATED_UNIVERSAL_TIME_OFFSET ( 1, 0, .AHEAD. ) ;
#17 = ORIENTED_EDGE ( 'NONE', *, *, #133, .T. ) ;
#18 = AXIS2_PLACEMENT_3D ( 'NONE', #222, #98, #168 ) ;
#19 = CC_DESIGN_PERSON_AND_ORGANIZATION_ASSIGNMENT ( #109, #184, ( #182 ) ) ;
#20 = CC_DESIGN_APPROVAL ( #128, ( #214 ) ) ;
#21 = DIRECTION ( 'NONE',  ( 3.491481338843133355E-15, -1.226656096638776648E-16, 1.000000000000000000 ) ) ;
#22 = FACE_OUTER_BOUND ( 'NONE', #210, .T. ) ;
#23 = DIRECTION ( 'NONE',  ( -3.491481338843133355E-15, 1.224646799147353207E-16, -1.000000000000000000 ) ) ;
#24 = DIRECTION ( 'NONE',  ( 4.275831445896958607E-31, 1.000000000000000000, 1.224646799147353207E-16 ) ) ;
#25 = FACE_BOUND ( 'NONE', #132, .T. ) ;
#26 = DATE_TIME_ROLE ( 'creation_date' ) ;
#27 = PERSON_AND_ORGANIZATION ( #3, #183 ) ;
#28 = PRODUCT_RELATED_PRODUCT_CATEGORY ( 'detail', '', ( #140 ) ) ;
#29 = AXIS2_PLACEMENT_3D ( 'NONE', #195, #119, #56 ) ;
#30 = AXIS2_PLACEMENT_3D ( 'NONE', #57, #139, #24 ) ;
#31 = EDGE_LOOP ( 'NONE', ( #101 ) ) ;
#32 = CALENDAR_DATE ( 2021, 1, 11 ) ;
#33 = APPROVAL_PERSON_ORGANIZATION ( #115, #106, #2 ) ;
#34 = DATE_AND_TIME ( #169, #99 ) ;
#35 = FACE_OUTER_BOUND ( 'NONE', #1, .T. ) ;
#36 = ADVANCED_FACE ( 'NONE', ( #207 ), #85, .T. ) ;
#37 = ORIENTED_EDGE ( 'NONE', *, *, #111, .F. ) ;
#38 = CARTESIAN_POINT ( 'NONE',  ( 2.897929511239800811E-13, -1.016456843292303150E-14, 83.00000000000000000 ) ) ;
#39 = DIRECTION ( 'NONE',  ( -4.282846870592447371E-31, -1.000000000000000000, -1.226656096638776648E-16 ) ) ;
#40 = PRODUCT_DEFINITION_SHAPE ( 'NONE', 'NONE',  #214 ) ;
#41 = CLOSED_SHELL ( 'NONE', ( #7, #145, #68, #170 ) ) ;
#42 = APPROVAL_PERSON_ORGANIZATION ( #110, #194, #48 ) ;
#43 = DIRECTION ( 'NONE',  ( -4.275831445896958607E-31, -1.000000000000000000, -1.224646799147353207E-16 ) ) ;
#44 = CIRCLE ( 'NONE', #187, 6.999999999999995559 ) ;
#45 = AXIS2_PLACEMENT_3D ( 'NONE', #72, #21, #102 ) ;
#46 = APPROVAL_DATE_TIME ( #185, #194 ) ;
#47 = CC_DESIGN_PERSON_AND_ORGANIZATION_ASSIGNMENT ( #27, #80, ( #182 ) ) ;
#48 = APPROVAL_ROLE ( '' ) ;
#49 = APPROVAL_ROLE ( '' ) ;
#50 = SHAPE_DEFINITION_REPRESENTATION ( #40, #198 ) ;
#51 = AXIS2_PLACEMENT_3D ( 'NONE', #138, #213, #121 ) ;
#52 = ORIENTED_EDGE ( 'NONE', *, *, #120, .F. ) ;
#53 = ORIENTED_EDGE ( 'NONE', *, *, #111, .T. ) ;
#54 = CARTESIAN_POINT ( 'NONE',  ( -6.413788384124843773E-31, 2.249654130366772681E-32, -1.836982003246216966E-16 ) ) ;
#55 = MANIFOLD_SOLID_BREP ( 'Corps-Déplacer/Copier1[1]', #41 ) ;
#56 = DIRECTION ( 'NONE',  ( -4.275831445896958607E-31, -1.000000000000000000, -1.224646799147353207E-16 ) ) ;
#57 = CARTESIAN_POINT ( 'NONE',  ( 0.0000000000000000000, 0.0000000000000000000, 0.0000000000000000000 ) ) ;
#58 = AXIS2_PLACEMENT_3D ( 'NONE', #60, #141, #135 ) ;
#59 = CC_DESIGN_DATE_AND_TIME_ASSIGNMENT ( #201, #26, ( #214 ) ) ;
#60 = CARTESIAN_POINT ( 'NONE',  ( 2.897929511239800811E-13, -1.016456843292303150E-14, 83.00000000000000000 ) ) ;
#61 =( NAMED_UNIT ( * ) SI_UNIT ( $, .STERADIAN. ) SOLID_ANGLE_UNIT ( ) );
#62 = DIRECTION ( 'NONE',  ( 1.000000000000000000, 0.0000000000000000000, 0.0000000000000000000 ) ) ;
#63 = APPROVAL_PERSON_ORGANIZATION ( #65, #128, #49 ) ;
#64 = MECHANICAL_CONTEXT ( 'NONE', #78, 'mechanical' ) ;
#65 = PERSON_AND_ORGANIZATION ( #3, #183 ) ;
#66 =( LENGTH_UNIT ( ) NAMED_UNIT ( * ) SI_UNIT ( .MILLI., .METRE. ) );
#67 = EDGE_LOOP ( 'NONE', ( #69 ) ) ;
#68 = ADVANCED_FACE ( 'NONE', ( #22, #25 ), #136, .T. ) ;
#69 = ORIENTED_EDGE ( 'NONE', *, *, #97, .F. ) ;
#70 = VERTEX_POINT ( 'NONE', #118 ) ;
#71 = CARTESIAN_POINT ( 'NONE',  ( 7.681258945454893382E-14, -2.694222958124176809E-15, 22.00000000000000000 ) ) ;
#72 = CARTESIAN_POINT ( 'NONE',  ( 6.982962677686246989E-16, -2.453312193277549166E-17, 0.1999999999999994282 ) ) ;
#73 = DIRECTION ( 'NONE',  ( -4.264559162571736407E-31, -1.000000000000000000, -1.239088197126290817E-16 ) ) ;
#74 = CC_DESIGN_PERSON_AND_ORGANIZATION_ASSIGNMENT ( #10, #77, ( #204 ) ) ;
#75 = DIRECTION ( 'NONE',  ( 3.491481338843133355E-15, -1.224646799147353207E-16, 1.000000000000000000 ) ) ;
#76 = LOCAL_TIME ( 11, 35, 4.000000000000000000, #143 ) ;
#77 = PERSON_AND_ORGANIZATION_ROLE ( 'classification_officer' ) ;
#78 = APPLICATION_CONTEXT ( 'configuration controlled 3d designs of mechanical parts and assemblies' ) ;
#79 = LOCAL_TIME ( 11, 35, 4.000000000000000000, #161 ) ;
#80 = PERSON_AND_ORGANIZATION_ROLE ( 'design_supplier' ) ;
#81 = EDGE_LOOP ( 'NONE', ( #150 ) ) ;
#82 = CIRCLE ( 'NONE', #220, 7.000000000000000000 ) ;
#83 = ORIENTED_EDGE ( 'NONE', *, *, #133, .F. ) ;
#84 = ADVANCED_FACE ( 'NONE', ( #159 ), #157, .F. ) ;
#85 = PLANE ( 'NONE',  #29 ) ;
#86 = EDGE_LOOP ( 'NONE', ( #17 ) ) ;
#87 =( GEOMETRIC_REPRESENTATION_CONTEXT ( 3 ) GLOBAL_UNCERTAINTY_ASSIGNED_CONTEXT ( ( #90 ) ) GLOBAL_UNIT_ASSIGNED_CONTEXT ( ( #66, #11, #61 ) ) REPRESENTATION_CONTEXT ( 'NONE', 'WORKASPACE' ) );
#88 = FACE_OUTER_BOUND ( 'NONE', #172, .T. ) ;
#89 = DIRECTION ( 'NONE',  ( -3.491481338843133355E-15, 1.224646799147353207E-16, -1.000000000000000000 ) ) ;
#90 = UNCERTAINTY_MEASURE_WITH_UNIT (LENGTH_MEASURE( 1.000000000000000082E-05 ), #66, 'distance_accuracy_value', 'NONE');
#91 = DIRECTION ( 'NONE',  ( 3.491481338843133355E-15, -1.226656096638776648E-16, 1.000000000000000000 ) ) ;
#92 = FACE_OUTER_BOUND ( 'NONE', #31, .T. ) ;
#93 = CC_DESIGN_PERSON_AND_ORGANIZATION_ASSIGNMENT ( #199, #164, ( #214 ) ) ;
#94 = FACE_OUTER_BOUND ( 'NONE', #117, .T. ) ;
#95 = DATE_AND_TIME ( #144, #126 ) ;
#96 = CARTESIAN_POINT ( 'NONE',  ( 0.0000000000000000000, 0.0000000000000000000, 0.0000000000000000000 ) ) ;
#97 = EDGE_CURVE ( 'NONE', #70, #70, #173, .T. ) ;
#98 = DIRECTION ( 'NONE',  ( 3.491481338843133355E-15, -1.224646799147353207E-16, 1.000000000000000000 ) ) ;
#99 = LOCAL_TIME ( 11, 35, 4.000000000000000000, #16 ) ;
#100 = APPROVAL_DATE_TIME ( #34, #106 ) ;
#101 = ORIENTED_EDGE ( 'NONE', *, *, #151, .T. ) ;
#102 = DIRECTION ( 'NONE',  ( -4.264559162571736407E-31, -1.000000000000000000, -1.239088197126290817E-16 ) ) ;
#103 = AXIS2_PLACEMENT_3D ( 'NONE', #174, #89, #123 ) ;
#104 = CARTESIAN_POINT ( 'NONE',  ( 2.897929511239800811E-13, 6.499999999999993783, 83.00000000000000000 ) ) ;
#105 = CARTESIAN_POINT ( 'NONE',  ( 7.681258945454893382E-14, -2.694222958124176809E-15, 22.00000000000000000 ) ) ;
#106 = APPROVAL ( #189, 'UNSPECIFIED' ) ;
#107 = FACE_OUTER_BOUND ( 'NONE', #147, .T. ) ;
#108 = DIRECTION ( 'NONE',  ( 3.491481338843133355E-15, -1.226656096638776648E-16, 1.000000000000000000 ) ) ;
#109 = PERSON_AND_ORGANIZATION ( #3, #183 ) ;
#110 = PERSON_AND_ORGANIZATION ( #3, #183 ) ;
#111 = EDGE_CURVE ( 'NONE', #191, #191, #223, .T. ) ;
#112 = CC_DESIGN_APPROVAL ( #194, ( #182 ) ) ;
#113 = CIRCLE ( 'NONE', #163, 7.000000000000003553 ) ;
#114 = ORIENTED_EDGE ( 'NONE', *, *, #120, .T. ) ;
#115 = PERSON_AND_ORGANIZATION ( #3, #183 ) ;
#116 = EDGE_LOOP ( 'NONE', ( #83 ) ) ;
#117 = EDGE_LOOP ( 'NONE', ( #52 ) ) ;
#118 = CARTESIAN_POINT ( 'NONE',  ( -5.824671744005730316E-30, -6.800000000000001599, -1.668252291428736576E-15 ) ) ;
#119 = DIRECTION ( 'NONE',  ( 3.491481338843133355E-15, -1.224646799147353207E-16, 1.000000000000000000 ) ) ;
#120 = EDGE_CURVE ( 'NONE', #155, #155, #180, .T. ) ;
#121 = DIRECTION ( 'NONE',  ( 4.275831445896958607E-31, 1.000000000000000000, 1.224646799147353207E-16 ) ) ;
#122 = CYLINDRICAL_SURFACE ( 'NONE', #103, 6.999999999999999112 ) ;
#123 = DIRECTION ( 'NONE',  ( 4.275831445896958607E-31, 1.000000000000000000, 1.224646799147353207E-16 ) ) ;
#124 = APPLICATION_PROTOCOL_DEFINITION ( 'international standard', 'config_control_design', 1994, #156 ) ;
#125 = CALENDAR_DATE ( 2021, 1, 11 ) ;
#126 = LOCAL_TIME ( 11, 35, 4.000000000000000000, #202 ) ;
#127 = VERTEX_POINT ( 'NONE', #197 ) ;
#128 = APPROVAL ( #13, 'UNSPECIFIED' ) ;
#129 = MANIFOLD_SOLID_BREP ( 'Corps-Déplacer/Copier1[2]', #166 ) ;
#130 = APPLICATION_PROTOCOL_DEFINITION ( 'international standard', 'config_control_design', 1994, #78 ) ;
#131 = CC_DESIGN_APPROVAL ( #106, ( #204 ) ) ;
#132 = EDGE_LOOP ( 'NONE', ( #53 ) ) ;
#133 = EDGE_CURVE ( 'NONE', #212, #212, #44, .T. ) ;
#134 = DESIGN_CONTEXT ( 'detailed design', #156, 'design' ) ;
#135 = DIRECTION ( 'NONE',  ( 0.0000000000000000000, 1.000000000000000000, 0.0000000000000000000 ) ) ;
#136 = CONICAL_SURFACE ( 'NONE', #58, 6.500000000000004441, 0.7853981633974473908 ) ;
#137 = CARTESIAN_POINT ( 'NONE',  ( 2.880472104545584703E-13, -1.010333609296566392E-14, 82.50000000000000000 ) ) ;
#138 = CARTESIAN_POINT ( 'NONE',  ( 2.897929511239800811E-13, 4.874219293651024636E-32, 83.00000000000000000 ) ) ;
#139 = DIRECTION ( 'NONE',  ( -3.491481338843133355E-15, 1.224646799147353207E-16, -1.000000000000000000 ) ) ;
#140 = PRODUCT ( '27781', '27781', '', ( #64 ) ) ;
#141 = DIRECTION ( 'NONE',  ( -3.491481338843133355E-15, 1.224646799147353207E-16, -1.000000000000000000 ) ) ;
#142 = COORDINATED_UNIVERSAL_TIME_OFFSET ( 1, 0, .AHEAD. ) ;
#143 = COORDINATED_UNIVERSAL_TIME_OFFSET ( 1, 0, .AHEAD. ) ;
#144 = CALENDAR_DATE ( 2021, 1, 11 ) ;
#145 = ADVANCED_FACE ( 'NONE', ( #94, #8 ), #122, .T. ) ;
#146 = PERSON_AND_ORGANIZATION_ROLE ( 'design_owner' ) ;
#147 = EDGE_LOOP ( 'NONE', ( #209 ) ) ;
#148 = CONICAL_SURFACE ( 'NONE', #45, 7.000000000000000000, 0.7853981633974446153 ) ;
#149 = ORIENTED_EDGE ( 'NONE', *, *, #221, .F. ) ;
#150 = ORIENTED_EDGE ( 'NONE', *, *, #221, .T. ) ;
#151 = EDGE_CURVE ( 'NONE', #127, #127, #82, .T. ) ;
#152 = AXIS2_PLACEMENT_3D ( 'NONE', #54, #75, #43 ) ;
#153 = ORIENTED_EDGE ( 'NONE', *, *, #97, .T. ) ;
#154 = PLANE ( 'NONE',  #51 ) ;
#155 = VERTEX_POINT ( 'NONE', #5 ) ;
#156 = APPLICATION_CONTEXT ( 'configuration controlled 3d designs of mechanical parts and assemblies' ) ;
#157 = PLANE ( 'NONE',  #152 ) ;
#158 = CARTESIAN_POINT ( 'NONE',  ( -2.912335872002865158E-30, 7.571972810326644130E-32, -8.341261457143682881E-16 ) ) ;
#159 = FACE_OUTER_BOUND ( 'NONE', #67, .T. ) ;
#160 = ADVANCED_FACE ( 'NONE', ( #193, #107 ), #148, .T. ) ;
#161 = COORDINATED_UNIVERSAL_TIME_OFFSET ( 1, 0, .AHEAD. ) ;
#162 = AXIS2_PLACEMENT_3D ( 'NONE', #158, #108, #39 ) ;
#163 = AXIS2_PLACEMENT_3D ( 'NONE', #137, #211, #215 ) ;
#164 = PERSON_AND_ORGANIZATION_ROLE ( 'creator' ) ;
#165 = DIRECTION ( 'NONE',  ( 0.0000000000000000000, 0.0000000000000000000, 1.000000000000000000 ) ) ;
#166 = CLOSED_SHELL ( 'NONE', ( #178, #36, #160, #84 ) ) ;
#167 = EDGE_LOOP ( 'NONE', ( #153 ) ) ;
#168 = DIRECTION ( 'NONE',  ( -4.275831445896958607E-31, -1.000000000000000000, -1.224646799147353207E-16 ) ) ;
#169 = CALENDAR_DATE ( 2021, 1, 11 ) ;
#170 = ADVANCED_FACE ( 'NONE', ( #88 ), #154, .F. ) ;
#171 = PLANE ( 'NONE',  #18 ) ;
#172 = EDGE_LOOP ( 'NONE', ( #37 ) ) ;
#173 = CIRCLE ( 'NONE', #162, 6.800000000000001599 ) ;
#174 = CARTESIAN_POINT ( 'NONE',  ( 0.0000000000000000000, 0.0000000000000000000, 0.0000000000000000000 ) ) ;
#175 = DIRECTION ( 'NONE',  ( -3.491481338843133355E-15, 1.224646799147353207E-16, -1.000000000000000000 ) ) ;
#176 = AXIS2_PLACEMENT_3D ( 'NONE', #96, #165, #62 ) ;
#177 = CYLINDRICAL_SURFACE ( 'NONE', #30, 6.999999999999993783 ) ;
#178 = ADVANCED_FACE ( 'NONE', ( #4, #92 ), #177, .T. ) ;
#179 = PERSON_AND_ORGANIZATION ( #3, #183 ) ;
#180 = CIRCLE ( 'NONE', #15, 6.999999999999995559 ) ;
#181 = CARTESIAN_POINT ( 'NONE',  ( 2.880472104545584703E-13, 6.999999999999992895, 82.50000000000000000 ) ) ;
#182 = PRODUCT_DEFINITION_FORMATION_WITH_SPECIFIED_SOURCE ( 'ANY', '', #140, .NOT_KNOWN. ) ;
#183 = ORGANIZATION ( 'UNSPECIFIED', 'UNSPECIFIED', '' ) ;
#184 = PERSON_AND_ORGANIZATION_ROLE ( 'creator' ) ;
#185 = DATE_AND_TIME ( #125, #79 ) ;
#186 = SECURITY_CLASSIFICATION_LEVEL ( 'unclassified' ) ;
#187 = AXIS2_PLACEMENT_3D ( 'NONE', #71, #175, #9 ) ;
#188 = CC_DESIGN_DATE_AND_TIME_ASSIGNMENT ( #206, #205, ( #204 ) ) ;
#189 = APPROVAL_STATUS ( 'not_yet_approved' ) ;
#190 = AXIS2_PLACEMENT_3D ( 'NONE', #38, #192, #6 ) ;
#191 = VERTEX_POINT ( 'NONE', #104 ) ;
#192 = DIRECTION ( 'NONE',  ( -3.491481338843133355E-15, 1.224646799147353207E-16, -1.000000000000000000 ) ) ;
#193 = FACE_BOUND ( 'NONE', #167, .T. ) ;
#194 = APPROVAL ( #218, 'UNSPECIFIED' ) ;
#195 = CARTESIAN_POINT ( 'NONE',  ( 7.681258945454893382E-14, 5.249159239316495059E-32, 22.00000000000000000 ) ) ;
#196 = CARTESIAN_POINT ( 'NONE',  ( 6.982962677686246989E-16, -2.453312193277549166E-17, 0.1999999999999994282 ) ) ;
#197 = CARTESIAN_POINT ( 'NONE',  ( 6.982962677686217407E-16, -7.000000000000000000, 0.1999999999999985678 ) ) ;
#198 = ADVANCED_BREP_SHAPE_REPRESENTATION ( '27781', ( #55, #129, #176 ), #87 ) ;
#199 = PERSON_AND_ORGANIZATION ( #3, #183 ) ;
#200 = LOCAL_TIME ( 11, 35, 4.000000000000000000, #142 ) ;
#201 = DATE_AND_TIME ( #219, #76 ) ;
#202 = COORDINATED_UNIVERSAL_TIME_OFFSET ( 1, 0, .AHEAD. ) ;
#203 = CC_DESIGN_PERSON_AND_ORGANIZATION_ASSIGNMENT ( #179, #146, ( #140 ) ) ;
#204 = SECURITY_CLASSIFICATION ( '', '', #186 ) ;
#205 = DATE_TIME_ROLE ( 'classification_date' ) ;
#206 = DATE_AND_TIME ( #32, #200 ) ;
#207 = FACE_OUTER_BOUND ( 'NONE', #116, .T. ) ;
#208 = CC_DESIGN_SECURITY_CLASSIFICATION ( #204, ( #182 ) ) ;
#209 = ORIENTED_EDGE ( 'NONE', *, *, #151, .F. ) ;
#210 = EDGE_LOOP ( 'NONE', ( #149 ) ) ;
#211 = DIRECTION ( 'NONE',  ( -3.491481338843133355E-15, 1.224646799147353207E-16, -1.000000000000000000 ) ) ;
#212 = VERTEX_POINT ( 'NONE', #217 ) ;
#213 = DIRECTION ( 'NONE',  ( -3.491481338843133355E-15, 1.224646799147353207E-16, -1.000000000000000000 ) ) ;
#214 = PRODUCT_DEFINITION ( 'UNKNOWN', '', #182, #134 ) ;
#215 = DIRECTION ( 'NONE',  ( 0.0000000000000000000, 1.000000000000000000, 0.0000000000000000000 ) ) ;
#216 = DIRECTION ( 'NONE',  ( 0.0000000000000000000, 1.000000000000000000, 0.0000000000000000000 ) ) ;
#217 = CARTESIAN_POINT ( 'NONE',  ( 7.681258945454893382E-14, 6.999999999999992895, 22.00000000000000000 ) ) ;
#218 = APPROVAL_STATUS ( 'not_yet_approved' ) ;
#219 = CALENDAR_DATE ( 2021, 1, 11 ) ;
#220 = AXIS2_PLACEMENT_3D ( 'NONE', #196, #91, #73 ) ;
#221 = EDGE_CURVE ( 'NONE', #14, #14, #113, .T. ) ;
#222 = CARTESIAN_POINT ( 'NONE',  ( 7.681258945454893382E-14, 5.249159239316495059E-32, 22.00000000000000000 ) ) ;
#223 = CIRCLE ( 'NONE', #190, 6.500000000000004441 ) ;
ENDSEC;
END-ISO-10303-21;
