ISO-10303-21;
HEADER;
FILE_DESCRIPTION (( 'STEP AP203' ),
    '1' );
FILE_NAME ('2774.step',
    '2021-12-06T12:58:37',
    ( '' ),
    ( '' ),
    'SwSTEP 2.0',
    'SolidWorks 2019',
    '' );
FILE_SCHEMA (( 'CONFIG_CONTROL_DESIGN' ));
ENDSEC;

DATA;
#1 = ORIENTED_EDGE ( 'NONE', *, *, #52, .F. ) ;
#2 = CALENDAR_DATE ( 2021, 6, 12 ) ;
#3 = FACE_OUTER_BOUND ( 'NONE', #133, .T. ) ;
#4 = ADVANCED_FACE ( 'NONE', ( #156, #5 ), #64, .T. ) ;
#5 = FACE_BOUND ( 'NONE', #46, .T. ) ;
#6 = CC_DESIGN_PERSON_AND_ORGANIZATION_ASSIGNMENT ( #120, #96, ( #81 ) ) ;
#7 = DIRECTION ( 'NONE',  ( 3.135609726991101489E-31, 1.000000000000000000, 8.980743193747252580E-17 ) ) ;
#8 = APPROVAL_STATUS ( 'not_yet_approved' ) ;
#9 = PERSON_AND_ORGANIZATION_ROLE ( 'design_supplier' ) ;
#10 = CIRCLE ( 'NONE', #138, 31.50000000000000000 ) ;
#11 = PERSON ( 'UNSPECIFIED', 'UNSPECIFIED', 'UNSPECIFIED', ('UNSPECIFIED'), ('UNSPECIFIED'), ('UNSPECIFIED') ) ;
#12 = APPLICATION_CONTEXT ( 'configuration controlled 3d designs of mechanical parts and assemblies' ) ;
#13 = AXIS2_PLACEMENT_3D ( 'NONE', #72, #155, #139 ) ;
#14 = CC_DESIGN_PERSON_AND_ORGANIZATION_ASSIGNMENT ( #33, #85, ( #105 ) ) ;
#15 = DIRECTION ( 'NONE',  ( -3.491481338843133355E-15, 8.980743193747252580E-17, -1.000000000000000000 ) ) ;
#16 = CC_DESIGN_DATE_AND_TIME_ASSIGNMENT ( #127, #164, ( #105 ) ) ;
#17 = AXIS2_PLACEMENT_3D ( 'NONE', #94, #47, #129 ) ;
#18 = APPLICATION_PROTOCOL_DEFINITION ( 'international standard', 'config_control_design', 1994, #12 ) ;
#19 =( NAMED_UNIT ( * ) PLANE_ANGLE_UNIT ( ) SI_UNIT ( $, .RADIAN. ) );
#20 = DIRECTION ( 'NONE',  ( 3.135609726991101489E-31, 1.000000000000000000, 8.980743193747252580E-17 ) ) ;
#21 = PLANE ( 'NONE',  #13 ) ;
#22 = AXIS2_PLACEMENT_3D ( 'NONE', #45, #157, #59 ) ;
#23 = CALENDAR_DATE ( 2021, 6, 12 ) ;
#24 = VERTEX_POINT ( 'NONE', #95 ) ;
#25 = DATE_AND_TIME ( #104, #143 ) ;
#26 = ADVANCED_BREP_SHAPE_REPRESENTATION ( '2774', ( #142, #17 ), #167 ) ;
#27 = CC_DESIGN_APPROVAL ( #163, ( #90 ) ) ;
#28 = ORIENTED_EDGE ( 'NONE', *, *, #169, .T. ) ;
#29 = DIRECTION ( 'NONE',  ( 3.179312924067818007E-31, 1.000000000000000000, 8.948970312578767011E-17 ) ) ;
#30 = EDGE_LOOP ( 'NONE', ( #28 ) ) ;
#31 = DIRECTION ( 'NONE',  ( 3.135609726991101489E-31, 1.000000000000000000, 8.980743193747252580E-17 ) ) ;
#32 = FACE_OUTER_BOUND ( 'NONE', #36, .T. ) ;
#33 = PERSON_AND_ORGANIZATION ( #11, #44 ) ;
#34 = DIRECTION ( 'NONE',  ( -3.491481338843133355E-15, 8.980743193747252580E-17, -1.000000000000000000 ) ) ;
#35 = COORDINATED_UNIVERSAL_TIME_OFFSET ( 1, 0, .AHEAD. ) ;
#36 = EDGE_LOOP ( 'NONE', ( #79 ) ) ;
#37 = CC_DESIGN_SECURITY_CLASSIFICATION ( #105, ( #90 ) ) ;
#38 = PERSON_AND_ORGANIZATION_ROLE ( 'creator' ) ;
#39 = PERSON_AND_ORGANIZATION ( #11, #44 ) ;
#40 = CC_DESIGN_PERSON_AND_ORGANIZATION_ASSIGNMENT ( #88, #54, ( #144 ) ) ;
#41 = DATE_TIME_ROLE ( 'creation_date' ) ;
#42 = LOCAL_TIME ( 13, 58, 37.00000000000000000, #35 ) ;
#43 = UNCERTAINTY_MEASURE_WITH_UNIT (LENGTH_MEASURE( 1.000000000000000082E-05 ), #97, 'distance_accuracy_value', 'NONE');
#44 = ORGANIZATION ( 'UNSPECIFIED', 'UNSPECIFIED', '' ) ;
#45 = CARTESIAN_POINT ( 'NONE',  ( 5.237222008264697666E-15, -1.347111479062087271E-16, 1.499999999999999334 ) ) ;
#46 = EDGE_LOOP ( 'NONE', ( #1 ) ) ;
#47 = DIRECTION ( 'NONE',  ( 0.0000000000000000000, 0.0000000000000000000, 1.000000000000000000 ) ) ;
#48 = ORIENTED_EDGE ( 'NONE', *, *, #169, .F. ) ;
#49 = LOCAL_TIME ( 13, 58, 37.00000000000000000, #153 ) ;
#50 = APPROVAL_DATE_TIME ( #25, #111 ) ;
#51 = DIRECTION ( 'NONE',  ( -3.491481338843133355E-15, 8.980743193747252580E-17, -1.000000000000000000 ) ) ;
#52 = EDGE_CURVE ( 'NONE', #63, #63, #154, .T. ) ;
#53 = DATE_AND_TIME ( #2, #119 ) ;
#54 = PERSON_AND_ORGANIZATION_ROLE ( 'creator' ) ;
#55 = APPROVAL_PERSON_ORGANIZATION ( #39, #111, #165 ) ;
#56 = DESIGN_CONTEXT ( 'detailed design', #92, 'design' ) ;
#57 = APPROVAL ( #62, 'UNSPECIFIED' ) ;
#58 = CARTESIAN_POINT ( 'NONE',  ( 0.0000000000000000000, 0.0000000000000000000, 0.0000000000000000000 ) ) ;
#59 = DIRECTION ( 'NONE',  ( 2.888894916580853780E-31, 1.000000000000000000, 8.131516293641283255E-17 ) ) ;
#60 = CARTESIAN_POINT ( 'NONE',  ( -3.684341429214545027E-30, 8.000000000000000000, -1.055237325265302258E-15 ) ) ;
#61 = APPROVAL_DATE_TIME ( #71, #163 ) ;
#62 = APPROVAL_STATUS ( 'not_yet_approved' ) ;
#63 = VERTEX_POINT ( 'NONE', #101 ) ;
#64 = PLANE ( 'NONE',  #141 ) ;
#65 = CC_DESIGN_PERSON_AND_ORGANIZATION_ASSIGNMENT ( #74, #38, ( #90 ) ) ;
#66 = CC_DESIGN_APPROVAL ( #57, ( #144 ) ) ;
#67 = ADVANCED_FACE ( 'NONE', ( #73, #130 ), #146, .F. ) ;
#68 = MECHANICAL_CONTEXT ( 'NONE', #12, 'mechanical' ) ;
#69 = VERTEX_POINT ( 'NONE', #162 ) ;
#70 = COORDINATED_UNIVERSAL_TIME_OFFSET ( 1, 0, .AHEAD. ) ;
#71 = DATE_AND_TIME ( #152, #109 ) ;
#72 = CARTESIAN_POINT ( 'NONE',  ( 5.237222008264696089E-15, 8.000000000000000000, 1.499999999999998890 ) ) ;
#73 = FACE_OUTER_BOUND ( 'NONE', #136, .T. ) ;
#74 = PERSON_AND_ORGANIZATION ( #11, #44 ) ;
#75 = CC_DESIGN_DATE_AND_TIME_ASSIGNMENT ( #106, #41, ( #144 ) ) ;
#76 = APPROVAL_ROLE ( '' ) ;
#77 = PRODUCT_RELATED_PRODUCT_CATEGORY ( 'detail', '', ( #81 ) ) ;
#78 = ADVANCED_FACE ( 'NONE', ( #32, #3 ), #86, .T. ) ;
#79 = ORIENTED_EDGE ( 'NONE', *, *, #102, .T. ) ;
#80 = VERTEX_POINT ( 'NONE', #134 ) ;
#81 = PRODUCT ( '2774', '2774', '', ( #68 ) ) ;
#82 = PERSON_AND_ORGANIZATION ( #11, #44 ) ;
#83 = DIRECTION ( 'NONE',  ( -3.491481338843133355E-15, 8.980743193747252580E-17, -1.000000000000000000 ) ) ;
#84 = CARTESIAN_POINT ( 'NONE',  ( 0.0000000000000000000, 0.0000000000000000000, 0.0000000000000000000 ) ) ;
#85 = PERSON_AND_ORGANIZATION_ROLE ( 'classification_officer' ) ;
#86 = CYLINDRICAL_SURFACE ( 'NONE', #168, 31.50000000000000000 ) ;
#87 = CARTESIAN_POINT ( 'NONE',  ( 5.237222008264690567E-15, -1.347111479062085298E-16, 1.499999999999997113 ) ) ;
#88 = PERSON_AND_ORGANIZATION ( #11, #44 ) ;
#89 = CALENDAR_DATE ( 2021, 6, 12 ) ;
#90 = PRODUCT_DEFINITION_FORMATION_WITH_SPECIFIED_SOURCE ( 'ANY', '', #81, .NOT_KNOWN. ) ;
#91 = AXIS2_PLACEMENT_3D ( 'NONE', #159, #113, #115 ) ;
#92 = APPLICATION_CONTEXT ( 'configuration controlled 3d designs of mechanical parts and assemblies' ) ;
#93 = CC_DESIGN_APPROVAL ( #111, ( #105 ) ) ;
#94 = CARTESIAN_POINT ( 'NONE',  ( 0.0000000000000000000, 0.0000000000000000000, 0.0000000000000000000 ) ) ;
#95 = CARTESIAN_POINT ( 'NONE',  ( 5.237222008264700033E-15, 31.50000000000000000, 1.500000000000000000 ) ) ;
#96 = PERSON_AND_ORGANIZATION_ROLE ( 'design_owner' ) ;
#97 =( LENGTH_UNIT ( ) NAMED_UNIT ( * ) SI_UNIT ( .MILLI., .METRE. ) );
#98 = CIRCLE ( 'NONE', #108, 31.50000000000000000 ) ;
#99 =( NAMED_UNIT ( * ) SI_UNIT ( $, .STERADIAN. ) SOLID_ANGLE_UNIT ( ) );
#100 = SHAPE_DEFINITION_REPRESENTATION ( #160, #26 ) ;
#101 = CARTESIAN_POINT ( 'NONE',  ( 3.421138828918010427E-46, 8.000000000000000000, 0.0000000000000000000 ) ) ;
#102 = EDGE_CURVE ( 'NONE', #24, #24, #10, .T. ) ;
#103 = EDGE_LOOP ( 'NONE', ( #112 ) ) ;
#104 = CALENDAR_DATE ( 2021, 6, 12 ) ;
#105 = SECURITY_CLASSIFICATION ( '', '', #149 ) ;
#106 = DATE_AND_TIME ( #23, #49 ) ;
#107 = CLOSED_SHELL ( 'NONE', ( #4, #78, #132, #67 ) ) ;
#108 = AXIS2_PLACEMENT_3D ( 'NONE', #126, #128, #7 ) ;
#109 = LOCAL_TIME ( 13, 58, 37.00000000000000000, #140 ) ;
#110 = FACE_BOUND ( 'NONE', #103, .T. ) ;
#111 = APPROVAL ( #8, 'UNSPECIFIED' ) ;
#112 = ORIENTED_EDGE ( 'NONE', *, *, #166, .T. ) ;
#113 = DIRECTION ( 'NONE',  ( -3.491481338843133355E-15, 8.980743193747252580E-17, -1.000000000000000000 ) ) ;
#114 = AXIS2_PLACEMENT_3D ( 'NONE', #84, #83, #124 ) ;
#115 = DIRECTION ( 'NONE',  ( 3.135609726991101489E-31, 1.000000000000000000, 8.980743193747252580E-17 ) ) ;
#116 = PERSON_AND_ORGANIZATION ( #11, #44 ) ;
#117 = EDGE_LOOP ( 'NONE', ( #151 ) ) ;
#118 = PERSON_AND_ORGANIZATION ( #11, #44 ) ;
#119 = LOCAL_TIME ( 13, 58, 37.00000000000000000, #70 ) ;
#120 = PERSON_AND_ORGANIZATION ( #11, #44 ) ;
#121 = ORIENTED_EDGE ( 'NONE', *, *, #52, .T. ) ;
#122 = CC_DESIGN_PERSON_AND_ORGANIZATION_ASSIGNMENT ( #118, #9, ( #90 ) ) ;
#123 = APPROVAL_PERSON_ORGANIZATION ( #116, #163, #76 ) ;
#124 = DIRECTION ( 'NONE',  ( 3.135609726991101489E-31, 1.000000000000000000, 8.980743193747252580E-17 ) ) ;
#125 = APPROVAL_ROLE ( '' ) ;
#126 = CARTESIAN_POINT ( 'NONE',  ( -9.877170640021968793E-30, 2.540593071829184532E-31, -2.828934106030384526E-15 ) ) ;
#127 = DATE_AND_TIME ( #89, #42 ) ;
#128 = DIRECTION ( 'NONE',  ( -3.491481338843133355E-15, 8.980743193747252580E-17, -1.000000000000000000 ) ) ;
#129 = DIRECTION ( 'NONE',  ( 1.000000000000000000, 0.0000000000000000000, 0.0000000000000000000 ) ) ;
#130 = FACE_OUTER_BOUND ( 'NONE', #117, .T. ) ;
#131 = APPROVAL_DATE_TIME ( #53, #57 ) ;
#132 = ADVANCED_FACE ( 'NONE', ( #110, #137 ), #21, .T. ) ;
#133 = EDGE_LOOP ( 'NONE', ( #48 ) ) ;
#134 = CARTESIAN_POINT ( 'NONE',  ( 5.237222008264700033E-15, 8.000000000000000000, 1.500000000000000000 ) ) ;
#135 = APPLICATION_PROTOCOL_DEFINITION ( 'international standard', 'config_control_design', 1994, #92 ) ;
#136 = EDGE_LOOP ( 'NONE', ( #121 ) ) ;
#137 = FACE_OUTER_BOUND ( 'NONE', #145, .T. ) ;
#138 = AXIS2_PLACEMENT_3D ( 'NONE', #87, #34, #29 ) ;
#139 = DIRECTION ( 'NONE',  ( -3.135609726991101489E-31, -1.000000000000000000, -8.980743193747252580E-17 ) ) ;
#140 = COORDINATED_UNIVERSAL_TIME_OFFSET ( 1, 0, .AHEAD. ) ;
#141 = AXIS2_PLACEMENT_3D ( 'NONE', #60, #51, #31 ) ;
#142 = MANIFOLD_SOLID_BREP ( 'Corps-Déplacer/Copier1', #107 ) ;
#143 = LOCAL_TIME ( 13, 58, 37.00000000000000000, #150 ) ;
#144 = PRODUCT_DEFINITION ( 'UNKNOWN', '', #90, #56 ) ;
#145 = EDGE_LOOP ( 'NONE', ( #148 ) ) ;
#146 = CYLINDRICAL_SURFACE ( 'NONE', #114, 8.000000000000000000 ) ;
#147 = CIRCLE ( 'NONE', #22, 8.000000000000000000 ) ;
#148 = ORIENTED_EDGE ( 'NONE', *, *, #102, .F. ) ;
#149 = SECURITY_CLASSIFICATION_LEVEL ( 'unclassified' ) ;
#150 = COORDINATED_UNIVERSAL_TIME_OFFSET ( 1, 0, .AHEAD. ) ;
#151 = ORIENTED_EDGE ( 'NONE', *, *, #166, .F. ) ;
#152 = CALENDAR_DATE ( 2021, 6, 12 ) ;
#153 = COORDINATED_UNIVERSAL_TIME_OFFSET ( 1, 0, .AHEAD. ) ;
#154 = CIRCLE ( 'NONE', #91, 8.000000000000000000 ) ;
#155 = DIRECTION ( 'NONE',  ( 3.491481338843133355E-15, -8.980743193747252580E-17, 1.000000000000000000 ) ) ;
#156 = FACE_OUTER_BOUND ( 'NONE', #30, .T. ) ;
#157 = DIRECTION ( 'NONE',  ( -3.491481338843133355E-15, 8.980743193747252580E-17, -1.000000000000000000 ) ) ;
#158 = APPROVAL_PERSON_ORGANIZATION ( #82, #57, #125 ) ;
#159 = CARTESIAN_POINT ( 'NONE',  ( -2.508487781592880841E-30, 6.452299864963008006E-32, -7.184594554997802064E-16 ) ) ;
#160 = PRODUCT_DEFINITION_SHAPE ( 'NONE', 'NONE',  #144 ) ;
#161 = APPROVAL_STATUS ( 'not_yet_approved' ) ;
#162 = CARTESIAN_POINT ( 'NONE',  ( 1.368455531567204171E-45, 31.50000000000000000, 0.0000000000000000000 ) ) ;
#163 = APPROVAL ( #161, 'UNSPECIFIED' ) ;
#164 = DATE_TIME_ROLE ( 'classification_date' ) ;
#165 = APPROVAL_ROLE ( '' ) ;
#166 = EDGE_CURVE ( 'NONE', #80, #80, #147, .T. ) ;
#167 =( GEOMETRIC_REPRESENTATION_CONTEXT ( 3 ) GLOBAL_UNCERTAINTY_ASSIGNED_CONTEXT ( ( #43 ) ) GLOBAL_UNIT_ASSIGNED_CONTEXT ( ( #97, #19, #99 ) ) REPRESENTATION_CONTEXT ( 'NONE', 'WORKASPACE' ) );
#168 = AXIS2_PLACEMENT_3D ( 'NONE', #58, #15, #20 ) ;
#169 = EDGE_CURVE ( 'NONE', #69, #69, #98, .T. ) ;
ENDSEC;
END-ISO-10303-21;
