ISO-10303-21;
HEADER;
FILE_DESCRIPTION (( 'STEP AP203' ),
    '1' );
FILE_NAME ('276.step',
    '2021-09-03T07:21:46',
    ( '' ),
    ( '' ),
    'SwSTEP 2.0',
    'SolidWorks 2019',
    '' );
FILE_SCHEMA (( 'CONFIG_CONTROL_DESIGN' ));
ENDSEC;

DATA;
#1 = VERTEX_POINT ( 'NONE', #8 ) ;
#2 = DIRECTION ( 'NONE',  ( -3.491481338843133355E-15, 1.224646799147353207E-16, -1.000000000000000000 ) ) ;
#3 = PRODUCT_DEFINITION ( 'UNKNOWN', '', #264, #290 ) ;
#4 = LINE ( 'NONE', #292, #333 ) ;
#5 = VERTEX_POINT ( 'NONE', #110 ) ;
#6 = LINE ( 'NONE', #108, #300 ) ;
#7 = ADVANCED_FACE ( 'NONE', ( #214 ), #153, .T. ) ;
#8 = CARTESIAN_POINT ( 'NONE',  ( 0.0000000000000000000, 0.0000000000000000000, 0.0000000000000000000 ) ) ;
#9 = CARTESIAN_POINT ( 'NONE',  ( 2.097893638580473587E-15, -0.9999999999999954481, 0.6008606190275641579 ) ) ;
#10 = ORIENTED_EDGE ( 'NONE', *, *, #64, .T. ) ;
#11 = CIRCLE ( 'NONE', #200, 1.000000000000000000 ) ;
#12 = CARTESIAN_POINT ( 'NONE',  ( 1.326762908760390423E-13, 5.999039130647361324E-33, 38.00000000000000000 ) ) ;
#13 = APPLICATION_CONTEXT ( 'configuration controlled 3d designs of mechanical parts and assemblies' ) ;
#14 = PERSON_AND_ORGANIZATION ( #238, #233 ) ;
#15 = COORDINATED_UNIVERSAL_TIME_OFFSET ( 1, 0, .AHEAD. ) ;
#16 = CYLINDRICAL_SURFACE ( 'NONE', #186, 0.9999999999999983347 ) ;
#17 = CARTESIAN_POINT ( 'NONE',  ( 1.324373609540779741E-13, -0.8000000000000048184, 38.00000000000000000 ) ) ;
#18 = SECURITY_CLASSIFICATION_LEVEL ( 'unclassified' ) ;
#19 = PERSON_AND_ORGANIZATION_ROLE ( 'creator' ) ;
#20 = DIRECTION ( 'NONE',  ( 0.0000000000000000000, 1.000000000000000000, 0.0000000000000000000 ) ) ;
#21 = CARTESIAN_POINT ( 'NONE',  ( 3.142333204958820020E-14, 7.498798913309246986E-33, 9.000000000000000000 ) ) ;
#22 = APPROVAL_DATE_TIME ( #203, #239 ) ;
#23 = CIRCLE ( 'NONE', #216, 0.9999999999999965583 ) ;
#24 = ADVANCED_FACE ( 'NONE', ( #287 ), #102, .T. ) ;
#25 = CARTESIAN_POINT ( 'NONE',  ( 8.182312800884399255E-14, -0.9999999999999976685, 9.000000000000000000 ) ) ;
#26 = ORIENTED_EDGE ( 'NONE', *, *, #269, .F. ) ;
#27 = AXIS2_PLACEMENT_3D ( 'NONE', #197, #325, #274 ) ;
#28 = VERTEX_POINT ( 'NONE', #25 ) ;
#29 = CC_DESIGN_APPROVAL ( #322, ( #3 ) ) ;
#30 = ORIENTED_EDGE ( 'NONE', *, *, #156, .F. ) ;
#31 = DIRECTION ( 'NONE',  ( -4.275831445896958607E-31, -1.000000000000000000, -1.224646799147353207E-16 ) ) ;
#32 = ADVANCED_FACE ( 'NONE', ( #298 ), #16, .T. ) ;
#33 = DIRECTION ( 'NONE',  ( -3.491481338843133355E-15, 1.224646799147353207E-16, -1.000000000000000000 ) ) ;
#34 = CARTESIAN_POINT ( 'NONE',  ( 3.142333204958820020E-14, 0.9999999999999954481, 9.000000000000000000 ) ) ;
#35 = AXIS2_PLACEMENT_3D ( 'NONE', #296, #219, #165 ) ;
#36 = CALENDAR_DATE ( 2021, 3, 9 ) ;
#37 = FACE_OUTER_BOUND ( 'NONE', #131, .T. ) ;
#38 = ADVANCED_FACE ( 'NONE', ( #140 ), #195, .F. ) ;
#39 = PERSON_AND_ORGANIZATION ( #238, #233 ) ;
#40 = DIRECTION ( 'NONE',  ( 3.851859888774489222E-31, 1.000000000000000000, 1.084202172485509364E-16 ) ) ;
#41 = EDGE_LOOP ( 'NONE', ( #184, #162, #305, #236 ) ) ;
#42 = VECTOR ( 'NONE', #112, 1000.000000000000000 ) ;
#43 = DATE_AND_TIME ( #225, #280 ) ;
#44 = CARTESIAN_POINT ( 'NONE',  ( 2.220358318495209129E-15, 0.9999999999999954481, 0.6008606190275643799 ) ) ;
#45 = APPROVAL_PERSON_ORGANIZATION ( #224, #322, #96 ) ;
#46 = APPROVAL_ROLE ( '' ) ;
#47 = EDGE_CURVE ( 'NONE', #249, #171, #247, .T. ) ;
#48 = CARTESIAN_POINT ( 'NONE',  ( 0.0000000000000000000, 0.0000000000000000000, 0.0000000000000000000 ) ) ;
#49 = CARTESIAN_POINT ( 'NONE',  ( 1.319779946082704535E-13, 0.9999999999999954481, 37.79999999999999716 ) ) ;
#50 = CARTESIAN_POINT ( 'NONE',  ( 3.142333204958820020E-14, -1.102182119232617714E-15, 9.000000000000000000 ) ) ;
#51 = CIRCLE ( 'NONE', #135, 0.9999999999999965583 ) ;
#52 = EDGE_CURVE ( 'NONE', #133, #249, #80, .T. ) ;
#53 = CARTESIAN_POINT ( 'NONE',  ( 0.0000000000000000000, 0.0000000000000000000, 0.0000000000000000000 ) ) ;
#54 = CARTESIAN_POINT ( 'NONE',  ( 1.326762908760390423E-13, -4.653657836759941941E-15, 38.00000000000000000 ) ) ;
#55 = FACE_OUTER_BOUND ( 'NONE', #289, .T. ) ;
#56 = DIRECTION ( 'NONE',  ( -3.491481338843133355E-15, 1.224646799147353207E-16, -1.000000000000000000 ) ) ;
#57 = ORIENTED_EDGE ( 'NONE', *, *, #328, .F. ) ;
#58 = AXIS2_PLACEMENT_3D ( 'NONE', #106, #83, #160 ) ;
#59 = DIRECTION ( 'NONE',  ( -3.491481338843133355E-15, 1.224646799147353207E-16, -1.000000000000000000 ) ) ;
#60 = CARTESIAN_POINT ( 'NONE',  ( 3.142333204958820020E-14, 7.498798913309246986E-33, 9.000000000000000000 ) ) ;
#61 = MANIFOLD_SOLID_BREP ( 'Corps-Déplacer/Copier1[1]', #251 ) ;
#62 = DIRECTION ( 'NONE',  ( 3.491481338843133355E-15, -1.224646799147353207E-16, 1.000000000000000000 ) ) ;
#63 = CARTESIAN_POINT ( 'NONE',  ( 2.097893638580473981E-15, -7.358420338258037846E-17, 0.6008606190275642689 ) ) ;
#64 = EDGE_CURVE ( 'NONE', #133, #295, #222, .T. ) ;
#65 = LINE ( 'NONE', #189, #180 ) ;
#66 = CONICAL_SURFACE ( 'NONE', #254, 0.9999999999999954481, 1.029744258676649649 ) ;
#67 = DATE_AND_TIME ( #276, #94 ) ;
#68 = DIRECTION ( 'NONE',  ( -3.491481338843133355E-15, 1.224646799147353207E-16, -1.000000000000000000 ) ) ;
#69 = EDGE_LOOP ( 'NONE', ( #235, #183 ) ) ;
#70 = APPROVAL_DATE_TIME ( #218, #322 ) ;
#71 = VERTEX_POINT ( 'NONE', #34 ) ;
#72 = VECTOR ( 'NONE', #111, 1000.000000000000000 ) ;
#73 = CARTESIAN_POINT ( 'NONE',  ( 1.326762908760390423E-13, 0.7999999999999954925, 38.00000000000000000 ) ) ;
#74 = DIRECTION ( 'NONE',  ( -3.491481338843133355E-15, 1.224646799147353207E-16, -1.000000000000000000 ) ) ;
#75 = ADVANCED_FACE ( 'NONE', ( #37 ), #319, .T. ) ;
#76 = AXIS2_PLACEMENT_3D ( 'NONE', #54, #155, #260 ) ;
#77 = ORIENTED_EDGE ( 'NONE', *, *, #147, .T. ) ;
#78 = DIRECTION ( 'NONE',  ( -3.851859888774489222E-31, -1.000000000000000000, -1.084202172485509364E-16 ) ) ;
#79 = ORIENTED_EDGE ( 'NONE', *, *, #52, .T. ) ;
#80 = CIRCLE ( 'NONE', #228, 0.8000000000000001554 ) ;
#81 = DIRECTION ( 'NONE',  ( -4.275831445896958607E-31, -1.000000000000000000, -1.224646799147353207E-16 ) ) ;
#82 = CYLINDRICAL_SURFACE ( 'NONE', #97, 0.9999999999999961142 ) ;
#83 = DIRECTION ( 'NONE',  ( -3.491481338843133355E-15, 1.224646799147353207E-16, -1.000000000000000000 ) ) ;
#84 = AXIS2_PLACEMENT_3D ( 'NONE', #267, #33, #134 ) ;
#85 = ORIENTED_EDGE ( 'NONE', *, *, #334, .T. ) ;
#86 = CYLINDRICAL_SURFACE ( 'NONE', #84, 0.9999999999999983347 ) ;
#87 = DIRECTION ( 'NONE',  ( -3.491481338843133355E-15, 1.224646799147353207E-16, -1.000000000000000000 ) ) ;
#88 = PERSON_AND_ORGANIZATION ( #238, #233 ) ;
#89 = DIRECTION ( 'NONE',  ( -2.382254525458709186E-15, -0.7071067811865493491, -0.7071067811865456854 ) ) ;
#90 = COORDINATED_UNIVERSAL_TIME_OFFSET ( 1, 0, .AHEAD. ) ;
#91 = APPROVAL_ROLE ( '' ) ;
#92 = DIRECTION ( 'NONE',  ( -3.491481338843133355E-15, 1.224646799147353207E-16, -1.000000000000000000 ) ) ;
#93 = ORIENTED_EDGE ( 'NONE', *, *, #120, .F. ) ;
#94 = LOCAL_TIME ( 9, 21, 46.00000000000000000, #193 ) ;
#95 = DIRECTION ( 'NONE',  ( 0.0000000000000000000, 0.0000000000000000000, 1.000000000000000000 ) ) ;
#96 = APPROVAL_ROLE ( '' ) ;
#97 = AXIS2_PLACEMENT_3D ( 'NONE', #53, #309, #101 ) ;
#98 = LINE ( 'NONE', #253, #313 ) ;
#99 = EDGE_CURVE ( 'NONE', #295, #28, #65, .T. ) ;
#100 = DIRECTION ( 'NONE',  ( -3.491481338843133355E-15, 1.224646799147353207E-16, -1.000000000000000000 ) ) ;
#101 = DIRECTION ( 'NONE',  ( 4.275831445896958607E-31, 1.000000000000000000, 1.224646799147353207E-16 ) ) ;
#102 = CONICAL_SURFACE ( 'NONE', #76, 0.8000000000000001554, 0.7853981633974510546 ) ;
#103 = DIRECTION ( 'NONE',  ( 3.491481338843133355E-15, -1.224646799147353207E-16, 1.000000000000000000 ) ) ;
#104 = AXIS2_PLACEMENT_3D ( 'NONE', #21, #126, #31 ) ;
#105 = APPROVAL_PERSON_ORGANIZATION ( #192, #239, #46 ) ;
#106 = CARTESIAN_POINT ( 'NONE',  ( 3.142333204958820020E-14, -1.102182119232617714E-15, 9.000000000000000000 ) ) ;
#107 = EDGE_CURVE ( 'NONE', #249, #133, #125, .T. ) ;
#108 = CARTESIAN_POINT ( 'NONE',  ( 4.275831445896951600E-31, 0.9999999999999983347, 1.224646799147351235E-16 ) ) ;
#109 = CC_DESIGN_PERSON_AND_ORGANIZATION_ASSIGNMENT ( #143, #19, ( #264 ) ) ;
#110 = CARTESIAN_POINT ( 'NONE',  ( 3.142333204958820020E-14, 0.9999999999999954481, 9.000000000000000000 ) ) ;
#111 = DIRECTION ( 'NONE',  ( 1.798245827342160317E-15, -0.8571673007021098911, 0.5150380749100582634 ) ) ;
#112 = DIRECTION ( 'NONE',  ( -2.468850131082258244E-15, 0.7071067811865495711, -0.7071067811865454633 ) ) ;
#113 = EDGE_CURVE ( 'NONE', #211, #234, #337, .T. ) ;
#114 = DIRECTION ( 'NONE',  ( 0.0000000000000000000, 1.000000000000000000, 0.0000000000000000000 ) ) ;
#115 = APPROVAL_STATUS ( 'not_yet_approved' ) ;
#116 = DIRECTION ( 'NONE',  ( 4.275831445896958607E-31, 1.000000000000000000, 1.224646799147353207E-16 ) ) ;
#117 = PERSON_AND_ORGANIZATION_ROLE ( 'design_owner' ) ;
#118 = CIRCLE ( 'NONE', #27, 1.000000000000000000 ) ;
#119 = LOCAL_TIME ( 9, 21, 46.00000000000000000, #297 ) ;
#120 = EDGE_CURVE ( 'NONE', #1, #211, #273, .T. ) ;
#121 = CARTESIAN_POINT ( 'NONE',  ( 3.142333204958820020E-14, -1.102182119232617714E-15, 9.000000000000000000 ) ) ;
#122 = CARTESIAN_POINT ( 'NONE',  ( 0.0000000000000000000, 0.0000000000000000000, 0.0000000000000000000 ) ) ;
#123 = CARTESIAN_POINT ( 'NONE',  ( 1.319779946082704535E-13, -4.629164900776995227E-15, 37.79999999999999716 ) ) ;
#124 = CALENDAR_DATE ( 2021, 3, 9 ) ;
#125 = CIRCLE ( 'NONE', #130, 0.8000000000000001554 ) ;
#126 = DIRECTION ( 'NONE',  ( 3.491481338843133355E-15, -1.224646799147353207E-16, 1.000000000000000000 ) ) ;
#127 = EDGE_LOOP ( 'NONE', ( #93, #85, #208 ) ) ;
#128 = EDGE_CURVE ( 'NONE', #5, #237, #23, .T. ) ;
#129 = CYLINDRICAL_SURFACE ( 'NONE', #320, 0.9999999999999961142 ) ;
#130 = AXIS2_PLACEMENT_3D ( 'NONE', #321, #87, #114 ) ;
#131 = EDGE_LOOP ( 'NONE', ( #318, #229, #139 ) ) ;
#132 = CC_DESIGN_PERSON_AND_ORGANIZATION_ASSIGNMENT ( #226, #117, ( #202 ) ) ;
#133 = VERTEX_POINT ( 'NONE', #17 ) ;
#134 = DIRECTION ( 'NONE',  ( 4.275831445896958607E-31, 1.000000000000000000, 1.224646799147353207E-16 ) ) ;
#135 = AXIS2_PLACEMENT_3D ( 'NONE', #50, #154, #206 ) ;
#136 = LOCAL_TIME ( 9, 21, 46.00000000000000000, #174 ) ;
#137 = DIRECTION ( 'NONE',  ( 4.275831445896958607E-31, 1.000000000000000000, 1.224646799147353207E-16 ) ) ;
#138 = DATE_AND_TIME ( #36, #119 ) ;
#139 = ORIENTED_EDGE ( 'NONE', *, *, #113, .T. ) ;
#140 = FACE_OUTER_BOUND ( 'NONE', #210, .T. ) ;
#141 = PERSON_AND_ORGANIZATION_ROLE ( 'design_supplier' ) ;
#142 = CARTESIAN_POINT ( 'NONE',  ( 3.142333204958820020E-14, -1.102182119232617714E-15, 9.000000000000000000 ) ) ;
#143 = PERSON_AND_ORGANIZATION ( #238, #233 ) ;
#144 = CC_DESIGN_APPROVAL ( #239, ( #227 ) ) ;
#145 = PRODUCT_RELATED_PRODUCT_CATEGORY ( 'detail', '', ( #202 ) ) ;
#146 = APPROVAL_STATUS ( 'not_yet_approved' ) ;
#147 = EDGE_CURVE ( 'NONE', #295, #171, #118, .T. ) ;
#148 = AXIS2_PLACEMENT_3D ( 'NONE', #60, #311, #81 ) ;
#149 = PRODUCT_DEFINITION_SHAPE ( 'NONE', 'NONE',  #3 ) ;
#150 = CARTESIAN_POINT ( 'NONE',  ( 2.220358318495209129E-15, 0.9999999999999954481, 0.6008606190275643799 ) ) ;
#151 = EDGE_CURVE ( 'NONE', #234, #211, #256, .T. ) ;
#152 = AXIS2_PLACEMENT_3D ( 'NONE', #142, #250, #255 ) ;
#153 = PLANE ( 'NONE',  #148 ) ;
#154 = DIRECTION ( 'NONE',  ( -3.491481338843133355E-15, 1.224646799147353207E-16, -1.000000000000000000 ) ) ;
#155 = DIRECTION ( 'NONE',  ( -3.491481338843133355E-15, 1.224646799147353207E-16, -1.000000000000000000 ) ) ;
#156 = EDGE_CURVE ( 'NONE', #28, #71, #307, .T. ) ;
#157 = CARTESIAN_POINT ( 'NONE',  ( 2.097893638580473981E-15, -7.358420338258037846E-17, 0.6008606190275642689 ) ) ;
#158 = ORIENTED_EDGE ( 'NONE', *, *, #147, .F. ) ;
#159 = CC_DESIGN_PERSON_AND_ORGANIZATION_ASSIGNMENT ( #39, #141, ( #264 ) ) ;
#160 = DIRECTION ( 'NONE',  ( 0.0000000000000000000, 1.000000000000000000, 0.0000000000000000000 ) ) ;
#161 = EDGE_LOOP ( 'NONE', ( #286, #314, #26, #282 ) ) ;
#162 = ORIENTED_EDGE ( 'NONE', *, *, #328, .T. ) ;
#163 = DATE_TIME_ROLE ( 'classification_date' ) ;
#164 = DIRECTION ( 'NONE',  ( -3.491481338843133355E-15, 1.224646799147353207E-16, -1.000000000000000000 ) ) ;
#165 = DIRECTION ( 'NONE',  ( 3.851859888774489222E-31, 1.000000000000000000, 1.084202172485509364E-16 ) ) ;
#166 = APPROVAL_STATUS ( 'not_yet_approved' ) ;
#167 = APPROVAL_DATE_TIME ( #67, #248 ) ;
#168 = DIRECTION ( 'NONE',  ( -3.491481338843133355E-15, 1.224646799147353207E-16, -1.000000000000000000 ) ) ;
#169 = EDGE_CURVE ( 'NONE', #5, #211, #98, .T. ) ;
#170 = DIRECTION ( 'NONE',  ( -3.491481338843133355E-15, 1.224646799147353207E-16, -1.000000000000000000 ) ) ;
#171 = VERTEX_POINT ( 'NONE', #49 ) ;
#172 = DATE_TIME_ROLE ( 'creation_date' ) ;
#173 = CC_DESIGN_SECURITY_CLASSIFICATION ( #227, ( #264 ) ) ;
#174 = COORDINATED_UNIVERSAL_TIME_OFFSET ( 1, 0, .AHEAD. ) ;
#175 = CC_DESIGN_PERSON_AND_ORGANIZATION_ASSIGNMENT ( #14, #243, ( #227 ) ) ;
#176 = SHAPE_DEFINITION_REPRESENTATION ( #149, #329 ) ;
#177 = EDGE_LOOP ( 'NONE', ( #261, #79, #188, #158 ) ) ;
#178 = AXIS2_PLACEMENT_3D ( 'NONE', #324, #62, #270 ) ;
#179 = FACE_OUTER_BOUND ( 'NONE', #69, .T. ) ;
#180 = VECTOR ( 'NONE', #92, 1000.000000000000000 ) ;
#181 = EDGE_CURVE ( 'NONE', #171, #295, #11, .T. ) ;
#182 = EDGE_LOOP ( 'NONE', ( #316, #77, #336, #30 ) ) ;
#183 = ORIENTED_EDGE ( 'NONE', *, *, #156, .T. ) ;
#184 = ORIENTED_EDGE ( 'NONE', *, *, #128, .T. ) ;
#185 = CARTESIAN_POINT ( 'NONE',  ( 2.097893638580473587E-15, -0.9999999999999954481, 0.6008606190275641579 ) ) ;
#186 = AXIS2_PLACEMENT_3D ( 'NONE', #301, #68, #137 ) ;
#187 = LOCAL_TIME ( 9, 21, 46.00000000000000000, #15 ) ;
#188 = ORIENTED_EDGE ( 'NONE', *, *, #47, .T. ) ;
#189 = CARTESIAN_POINT ( 'NONE',  ( 1.224646799147346798E-16, -0.9999999999999983347, -1.224646799147355426E-16 ) ) ;
#190 = DIRECTION ( 'NONE',  ( 0.0000000000000000000, 1.000000000000000000, 0.0000000000000000000 ) ) ;
#191 = DIRECTION ( 'NONE',  ( 0.0000000000000000000, 1.000000000000000000, 0.0000000000000000000 ) ) ;
#192 = PERSON_AND_ORGANIZATION ( #238, #233 ) ;
#193 = COORDINATED_UNIVERSAL_TIME_OFFSET ( 1, 0, .AHEAD. ) ;
#194 = CIRCLE ( 'NONE', #58, 0.9999999999999965583 ) ;
#195 = PLANE ( 'NONE',  #291 ) ;
#196 = ORIENTED_EDGE ( 'NONE', *, *, #107, .F. ) ;
#197 = CARTESIAN_POINT ( 'NONE',  ( 1.319779946082704535E-13, -4.629164900776995227E-15, 37.79999999999999716 ) ) ;
#198 =( NAMED_UNIT ( * ) SI_UNIT ( $, .STERADIAN. ) SOLID_ANGLE_UNIT ( ) );
#199 = DIRECTION ( 'NONE',  ( 1.903218546456022717E-15, 0.8571673007021097801, 0.5150380749100585964 ) ) ;
#200 = AXIS2_PLACEMENT_3D ( 'NONE', #123, #74, #20 ) ;
#201 = CC_DESIGN_DATE_AND_TIME_ASSIGNMENT ( #138, #172, ( #3 ) ) ;
#202 = PRODUCT ( '276', '276', '', ( #278 ) ) ;
#203 = DATE_AND_TIME ( #124, #136 ) ;
#204 = ADVANCED_FACE ( 'NONE', ( #331 ), #241, .T. ) ;
#205 = APPROVAL_PERSON_ORGANIZATION ( #246, #248, #91 ) ;
#206 = DIRECTION ( 'NONE',  ( 0.0000000000000000000, 1.000000000000000000, 0.0000000000000000000 ) ) ;
#207 = DIRECTION ( 'NONE',  ( -3.491481338843133355E-15, 1.224646799147353207E-16, -1.000000000000000000 ) ) ;
#208 = ORIENTED_EDGE ( 'NONE', *, *, #151, .T. ) ;
#209 = ADVANCED_FACE ( 'NONE', ( #285 ), #82, .T. ) ;
#210 = EDGE_LOOP ( 'NONE', ( #196, #293 ) ) ;
#211 = VERTEX_POINT ( 'NONE', #150 ) ;
#212 = ORIENTED_EDGE ( 'NONE', *, *, #107, .T. ) ;
#213 = FACE_OUTER_BOUND ( 'NONE', #161, .T. ) ;
#214 = FACE_OUTER_BOUND ( 'NONE', #317, .T. ) ;
#215 = EDGE_CURVE ( 'NONE', #237, #5, #51, .T. ) ;
#216 = AXIS2_PLACEMENT_3D ( 'NONE', #121, #170, #191 ) ;
#217 = CARTESIAN_POINT ( 'NONE',  ( 1.326762908760390423E-13, -4.653657836759941941E-15, 38.00000000000000000 ) ) ;
#218 = DATE_AND_TIME ( #272, #187 ) ;
#219 = DIRECTION ( 'NONE',  ( -3.491481338843133355E-15, 1.224646799147353207E-16, -1.000000000000000000 ) ) ;
#220 = ADVANCED_FACE ( 'NONE', ( #259 ), #66, .T. ) ;
#221 = APPLICATION_PROTOCOL_DEFINITION ( 'international standard', 'config_control_design', 1994, #13 ) ;
#222 = LINE ( 'NONE', #323, #271 ) ;
#223 = CLOSED_SHELL ( 'NONE', ( #209, #75, #220, #245, #7 ) ) ;
#224 = PERSON_AND_ORGANIZATION ( #238, #233 ) ;
#225 = CALENDAR_DATE ( 2021, 3, 9 ) ;
#226 = PERSON_AND_ORGANIZATION ( #238, #233 ) ;
#227 = SECURITY_CLASSIFICATION ( '', '', #18 ) ;
#228 = AXIS2_PLACEMENT_3D ( 'NONE', #217, #164, #190 ) ;
#229 = ORIENTED_EDGE ( 'NONE', *, *, #120, .T. ) ;
#230 = ORIENTED_EDGE ( 'NONE', *, *, #169, .T. ) ;
#231 = ORIENTED_EDGE ( 'NONE', *, *, #215, .F. ) ;
#232 = UNCERTAINTY_MEASURE_WITH_UNIT (LENGTH_MEASURE( 1.000000000000000082E-05 ), #258, 'distance_accuracy_value', 'NONE');
#233 = ORGANIZATION ( 'UNSPECIFIED', 'UNSPECIFIED', '' ) ;
#234 = VERTEX_POINT ( 'NONE', #185 ) ;
#235 = ORIENTED_EDGE ( 'NONE', *, *, #269, .T. ) ;
#236 = ORIENTED_EDGE ( 'NONE', *, *, #169, .F. ) ;
#237 = VERTEX_POINT ( 'NONE', #288 ) ;
#238 = PERSON ( 'UNSPECIFIED', 'UNSPECIFIED', 'UNSPECIFIED', ('UNSPECIFIED'), ('UNSPECIFIED'), ('UNSPECIFIED') ) ;
#239 = APPROVAL ( #166, 'UNSPECIFIED' ) ;
#240 = LINE ( 'NONE', #9, #72 ) ;
#241 = CONICAL_SURFACE ( 'NONE', #299, 0.8000000000000001554, 0.7853981633974510546 ) ;
#242 = CC_DESIGN_APPROVAL ( #248, ( #264 ) ) ;
#243 = PERSON_AND_ORGANIZATION_ROLE ( 'classification_officer' ) ;
#244 = CARTESIAN_POINT ( 'NONE',  ( 1.326762908760390423E-13, 0.7999999999999954925, 38.00000000000000000 ) ) ;
#245 = ADVANCED_FACE ( 'NONE', ( #55 ), #129, .T. ) ;
#246 = PERSON_AND_ORGANIZATION ( #238, #233 ) ;
#247 = LINE ( 'NONE', #244, #42 ) ;
#248 = APPROVAL ( #115, 'UNSPECIFIED' ) ;
#249 = VERTEX_POINT ( 'NONE', #73 ) ;
#250 = DIRECTION ( 'NONE',  ( -3.491481338843133355E-15, 1.224646799147353207E-16, -1.000000000000000000 ) ) ;
#251 = CLOSED_SHELL ( 'NONE', ( #24, #332, #263, #32, #204, #38 ) ) ;
#252 = DIRECTION ( 'NONE',  ( 1.000000000000000000, 0.0000000000000000000, 0.0000000000000000000 ) ) ;
#253 = CARTESIAN_POINT ( 'NONE',  ( 4.275831445896941966E-31, 0.9999999999999961142, 1.224646799147348523E-16 ) ) ;
#254 = AXIS2_PLACEMENT_3D ( 'NONE', #157, #103, #78 ) ;
#255 = DIRECTION ( 'NONE',  ( 0.0000000000000000000, 1.000000000000000000, 0.0000000000000000000 ) ) ;
#256 = CIRCLE ( 'NONE', #326, 0.9999999999999954481 ) ;
#257 = DIRECTION ( 'NONE',  ( 0.0000000000000000000, 1.000000000000000000, 0.0000000000000000000 ) ) ;
#258 =( LENGTH_UNIT ( ) NAMED_UNIT ( * ) SI_UNIT ( .MILLI., .METRE. ) );
#259 = FACE_OUTER_BOUND ( 'NONE', #127, .T. ) ;
#260 = DIRECTION ( 'NONE',  ( 0.0000000000000000000, 1.000000000000000000, 0.0000000000000000000 ) ) ;
#261 = ORIENTED_EDGE ( 'NONE', *, *, #64, .F. ) ;
#262 = VECTOR ( 'NONE', #199, 999.9999999999998863 ) ;
#263 = ADVANCED_FACE ( 'NONE', ( #179 ), #283, .F. ) ;
#264 = PRODUCT_DEFINITION_FORMATION_WITH_SPECIFIED_SOURCE ( 'ANY', '', #202, .NOT_KNOWN. ) ;
#265 = ORIENTED_EDGE ( 'NONE', *, *, #128, .F. ) ;
#266 = ORIENTED_EDGE ( 'NONE', *, *, #151, .F. ) ;
#267 = CARTESIAN_POINT ( 'NONE',  ( 0.0000000000000000000, 0.0000000000000000000, 0.0000000000000000000 ) ) ;
#268 = ORIENTED_EDGE ( 'NONE', *, *, #47, .F. ) ;
#269 = EDGE_CURVE ( 'NONE', #71, #28, #194, .T. ) ;
#270 = DIRECTION ( 'NONE',  ( -3.851859888774489222E-31, -1.000000000000000000, -1.084202172485509364E-16 ) ) ;
#271 = VECTOR ( 'NONE', #89, 1000.000000000000000 ) ;
#272 = CALENDAR_DATE ( 2021, 3, 9 ) ;
#273 = LINE ( 'NONE', #44, #262 ) ;
#274 = DIRECTION ( 'NONE',  ( 0.0000000000000000000, 1.000000000000000000, 0.0000000000000000000 ) ) ;
#275 = EDGE_LOOP ( 'NONE', ( #212, #10, #294, #268 ) ) ;
#276 = CALENDAR_DATE ( 2021, 3, 9 ) ;
#277 = EDGE_CURVE ( 'NONE', #171, #71, #6, .T. ) ;
#278 = MECHANICAL_CONTEXT ( 'NONE', #304, 'mechanical' ) ;
#279 = DIRECTION ( 'NONE',  ( -3.491481338843133355E-15, 1.224646799147353207E-16, -1.000000000000000000 ) ) ;
#280 = LOCAL_TIME ( 9, 21, 46.00000000000000000, #90 ) ;
#281 = MANIFOLD_SOLID_BREP ( 'Corps-Déplacer/Copier1[2]', #223 ) ;
#282 = ORIENTED_EDGE ( 'NONE', *, *, #277, .F. ) ;
#283 = PLANE ( 'NONE',  #104 ) ;
#284 =( GEOMETRIC_REPRESENTATION_CONTEXT ( 3 ) GLOBAL_UNCERTAINTY_ASSIGNED_CONTEXT ( ( #232 ) ) GLOBAL_UNIT_ASSIGNED_CONTEXT ( ( #258, #312, #198 ) ) REPRESENTATION_CONTEXT ( 'NONE', 'WORKASPACE' ) );
#285 = FACE_OUTER_BOUND ( 'NONE', #41, .T. ) ;
#286 = ORIENTED_EDGE ( 'NONE', *, *, #181, .T. ) ;
#287 = FACE_OUTER_BOUND ( 'NONE', #275, .T. ) ;
#288 = CARTESIAN_POINT ( 'NONE',  ( 1.688307752399905567E-14, -0.9999999999999976685, 9.000000000000000000 ) ) ;
#289 = EDGE_LOOP ( 'NONE', ( #57, #302, #230, #266 ) ) ;
#290 = DESIGN_CONTEXT ( 'detailed design', #13, 'design' ) ;
#291 = AXIS2_PLACEMENT_3D ( 'NONE', #12, #168, #116 ) ;
#292 = CARTESIAN_POINT ( 'NONE',  ( 1.224646799147344332E-16, -0.9999999999999961142, -1.224646799147352714E-16 ) ) ;
#293 = ORIENTED_EDGE ( 'NONE', *, *, #52, .F. ) ;
#294 = ORIENTED_EDGE ( 'NONE', *, *, #181, .F. ) ;
#295 = VERTEX_POINT ( 'NONE', #315 ) ;
#296 = CARTESIAN_POINT ( 'NONE',  ( 2.097893638580473981E-15, -7.358420338258037846E-17, 0.6008606190275642689 ) ) ;
#297 = COORDINATED_UNIVERSAL_TIME_OFFSET ( 1, 0, .AHEAD. ) ;
#298 = FACE_OUTER_BOUND ( 'NONE', #182, .T. ) ;
#299 = AXIS2_PLACEMENT_3D ( 'NONE', #335, #207, #257 ) ;
#300 = VECTOR ( 'NONE', #56, 1000.000000000000000 ) ;
#301 = CARTESIAN_POINT ( 'NONE',  ( 0.0000000000000000000, 0.0000000000000000000, 0.0000000000000000000 ) ) ;
#302 = ORIENTED_EDGE ( 'NONE', *, *, #215, .T. ) ;
#303 = APPLICATION_PROTOCOL_DEFINITION ( 'international standard', 'config_control_design', 1994, #304 ) ;
#304 = APPLICATION_CONTEXT ( 'configuration controlled 3d designs of mechanical parts and assemblies' ) ;
#305 = ORIENTED_EDGE ( 'NONE', *, *, #113, .F. ) ;
#306 = CC_DESIGN_PERSON_AND_ORGANIZATION_ASSIGNMENT ( #88, #327, ( #3 ) ) ;
#307 = CIRCLE ( 'NONE', #152, 0.9999999999999965583 ) ;
#308 = DIRECTION ( 'NONE',  ( 4.275831445896958607E-31, 1.000000000000000000, 1.224646799147353207E-16 ) ) ;
#309 = DIRECTION ( 'NONE',  ( -3.491481338843133355E-15, 1.224646799147353207E-16, -1.000000000000000000 ) ) ;
#310 = CC_DESIGN_DATE_AND_TIME_ASSIGNMENT ( #43, #163, ( #227 ) ) ;
#311 = DIRECTION ( 'NONE',  ( 3.491481338843133355E-15, -1.224646799147353207E-16, 1.000000000000000000 ) ) ;
#312 =( NAMED_UNIT ( * ) PLANE_ANGLE_UNIT ( ) SI_UNIT ( $, .RADIAN. ) );
#313 = VECTOR ( 'NONE', #100, 1000.000000000000000 ) ;
#314 = ORIENTED_EDGE ( 'NONE', *, *, #99, .T. ) ;
#315 = CARTESIAN_POINT ( 'NONE',  ( 8.182312800884387896E-14, -1.000000000000004663, 37.79999999999999716 ) ) ;
#316 = ORIENTED_EDGE ( 'NONE', *, *, #99, .F. ) ;
#317 = EDGE_LOOP ( 'NONE', ( #265, #231 ) ) ;
#318 = ORIENTED_EDGE ( 'NONE', *, *, #334, .F. ) ;
#319 = CONICAL_SURFACE ( 'NONE', #178, 0.9999999999999954481, 1.029744258676649649 ) ;
#320 = AXIS2_PLACEMENT_3D ( 'NONE', #48, #2, #308 ) ;
#321 = CARTESIAN_POINT ( 'NONE',  ( 1.326762908760390423E-13, -4.653657836759941941E-15, 38.00000000000000000 ) ) ;
#322 = APPROVAL ( #146, 'UNSPECIFIED' ) ;
#323 = CARTESIAN_POINT ( 'NONE',  ( 1.327742626199708354E-13, -0.8000000000000048184, 38.00000000000000000 ) ) ;
#324 = CARTESIAN_POINT ( 'NONE',  ( 2.097893638580473981E-15, -7.358420338258037846E-17, 0.6008606190275642689 ) ) ;
#325 = DIRECTION ( 'NONE',  ( -3.491481338843133355E-15, 1.224646799147353207E-16, -1.000000000000000000 ) ) ;
#326 = AXIS2_PLACEMENT_3D ( 'NONE', #63, #279, #40 ) ;
#327 = PERSON_AND_ORGANIZATION_ROLE ( 'creator' ) ;
#328 = EDGE_CURVE ( 'NONE', #237, #234, #4, .T. ) ;
#329 = ADVANCED_BREP_SHAPE_REPRESENTATION ( '276', ( #61, #281, #330 ), #284 ) ;
#330 = AXIS2_PLACEMENT_3D ( 'NONE', #122, #95, #252 ) ;
#331 = FACE_OUTER_BOUND ( 'NONE', #177, .T. ) ;
#332 = ADVANCED_FACE ( 'NONE', ( #213 ), #86, .T. ) ;
#333 = VECTOR ( 'NONE', #59, 1000.000000000000000 ) ;
#334 = EDGE_CURVE ( 'NONE', #1, #234, #240, .T. ) ;
#335 = CARTESIAN_POINT ( 'NONE',  ( 1.326762908760390423E-13, -4.653657836759941941E-15, 38.00000000000000000 ) ) ;
#336 = ORIENTED_EDGE ( 'NONE', *, *, #277, .T. ) ;
#337 = CIRCLE ( 'NONE', #35, 0.9999999999999954481 ) ;
ENDSEC;
END-ISO-10303-21;
