ISO-10303-21;
HEADER;
FILE_DESCRIPTION (( 'STEP AP203' ),
    '1' );
FILE_NAME ('275.step',
    '2021-09-03T07:21:45',
    ( '' ),
    ( '' ),
    'SwSTEP 2.0',
    'SolidWorks 2019',
    '' );
FILE_SCHEMA (( 'CONFIG_CONTROL_DESIGN' ));
ENDSEC;

DATA;
#1 = DIRECTION ( 'NONE',  ( -3.491481338843133355E-15, 1.224646799147353207E-16, -1.000000000000000000 ) ) ;
#2 = DIRECTION ( 'NONE',  ( 3.491481338843133355E-15, -1.224646799147353207E-16, 1.000000000000000000 ) ) ;
#3 = DIRECTION ( 'NONE',  ( -3.491481338843133355E-15, 1.224646799147353207E-16, -1.000000000000000000 ) ) ;
#4 = DIRECTION ( 'NONE',  ( -3.491481338843133355E-15, 1.224646799147353207E-16, -1.000000000000000000 ) ) ;
#5 = PLANE ( 'NONE',  #205 ) ;
#6 = CARTESIAN_POINT ( 'NONE',  ( 3.142333204958820020E-14, -1.102182119232617714E-15, 9.000000000000000000 ) ) ;
#7 = FACE_OUTER_BOUND ( 'NONE', #117, .T. ) ;
#8 = VECTOR ( 'NONE', #97, 1000.000000000000000 ) ;
#9 = DIRECTION ( 'NONE',  ( 4.275831445896957731E-31, 1.000000000000000000, 1.224646799147353454E-16 ) ) ;
#10 = PERSON_AND_ORGANIZATION_ROLE ( 'design_supplier' ) ;
#11 = VERTEX_POINT ( 'NONE', #135 ) ;
#12 = COORDINATED_UNIVERSAL_TIME_OFFSET ( 1, 0, .AHEAD. ) ;
#13 = ORIENTED_EDGE ( 'NONE', *, *, #180, .T. ) ;
#14 = PRODUCT_DEFINITION_FORMATION_WITH_SPECIFIED_SOURCE ( 'ANY', '', #133, .NOT_KNOWN. ) ;
#15 = PERSON_AND_ORGANIZATION ( #280, #27 ) ;
#16 = APPROVAL_ROLE ( '' ) ;
#17 = DIRECTION ( 'NONE',  ( -3.491481338843133355E-15, 1.224646799147353207E-16, -1.000000000000000000 ) ) ;
#18 = CC_DESIGN_APPROVAL ( #98, ( #199 ) ) ;
#19 = DIRECTION ( 'NONE',  ( -3.491481338843133355E-15, 1.224646799147353207E-16, -1.000000000000000000 ) ) ;
#20 = PLANE ( 'NONE',  #283 ) ;
#21 = CIRCLE ( 'NONE', #121, 0.9749999999999964251 ) ;
#22 = CARTESIAN_POINT ( 'NONE',  ( 2.045446297615961382E-15, -7.174459829801583942E-17, 0.5858391035518749623 ) ) ;
#23 = PRODUCT_DEFINITION_SHAPE ( 'NONE', 'NONE',  #199 ) ;
#24 = EDGE_CURVE ( 'NONE', #49, #156, #40, .T. ) ;
#25 = CARTESIAN_POINT ( 'NONE',  ( 0.0000000000000000000, 0.0000000000000000000, 0.0000000000000000000 ) ) ;
#26 = VERTEX_POINT ( 'NONE', #316 ) ;
#27 = ORGANIZATION ( 'UNSPECIFIED', 'UNSPECIFIED', '' ) ;
#28 = FACE_OUTER_BOUND ( 'NONE', #245, .T. ) ;
#29 = FACE_OUTER_BOUND ( 'NONE', #321, .T. ) ;
#30 = EDGE_CURVE ( 'NONE', #88, #57, #21, .T. ) ;
#31 = ORIENTED_EDGE ( 'NONE', *, *, #160, .F. ) ;
#32 = LINE ( 'NONE', #270, #177 ) ;
#33 = VECTOR ( 'NONE', #137, 1000.000000000000000 ) ;
#34 = APPROVAL_DATE_TIME ( #91, #236 ) ;
#35 = CARTESIAN_POINT ( 'NONE',  ( 3.142333204958820020E-14, -1.102182119232617714E-15, 9.000000000000000000 ) ) ;
#36 = ORIENTED_EDGE ( 'NONE', *, *, #129, .F. ) ;
#37 = CALENDAR_DATE ( 2021, 3, 9 ) ;
#38 = ORIENTED_EDGE ( 'NONE', *, *, #71, .T. ) ;
#39 = DIRECTION ( 'NONE',  ( 3.491481338843133355E-15, -1.224646799147353207E-16, 1.000000000000000000 ) ) ;
#40 = CIRCLE ( 'NONE', #155, 0.9749999999999954259 ) ;
#41 = PERSON_AND_ORGANIZATION_ROLE ( 'creator' ) ;
#42 = SHAPE_DEFINITION_REPRESENTATION ( #23, #226 ) ;
#43 = VECTOR ( 'NONE', #252, 1000.000000000000000 ) ;
#44 = ADVANCED_FACE ( 'NONE', ( #176 ), #87, .T. ) ;
#45 = DIRECTION ( 'NONE',  ( -3.491481338843133355E-15, 1.224646799147353207E-16, -1.000000000000000000 ) ) ;
#46 = ADVANCED_FACE ( 'NONE', ( #198 ), #20, .F. ) ;
#47 = ORIENTED_EDGE ( 'NONE', *, *, #225, .T. ) ;
#48 = MANIFOLD_SOLID_BREP ( 'Corps-Déplacer/Copier1[2]', #249 ) ;
#49 = VERTEX_POINT ( 'NONE', #315 ) ;
#50 = DIRECTION ( 'NONE',  ( 0.0000000000000000000, 1.000000000000000000, 0.0000000000000000000 ) ) ;
#51 = MANIFOLD_SOLID_BREP ( 'Corps-Déplacer/Copier1[1]', #147 ) ;
#52 = LINE ( 'NONE', #183, #33 ) ;
#53 = AXIS2_PLACEMENT_3D ( 'NONE', #77, #19, #99 ) ;
#54 = CARTESIAN_POINT ( 'NONE',  ( 1.326762908760390423E-13, -4.653657836759941941E-15, 38.00000000000000000 ) ) ;
#55 = DIRECTION ( 'NONE',  ( -3.491481338843133355E-15, 1.224646799147353207E-16, -1.000000000000000000 ) ) ;
#56 = CC_DESIGN_APPROVAL ( #253, ( #256 ) ) ;
#57 = VERTEX_POINT ( 'NONE', #86 ) ;
#58 = DIRECTION ( 'NONE',  ( -3.491481338843133355E-15, 1.224646799147353207E-16, -1.000000000000000000 ) ) ;
#59 = ORIENTED_EDGE ( 'NONE', *, *, #326, .T. ) ;
#60 = DIRECTION ( 'NONE',  ( 0.0000000000000000000, 0.0000000000000000000, 1.000000000000000000 ) ) ;
#61 = APPLICATION_PROTOCOL_DEFINITION ( 'international standard', 'config_control_design', 1994, #84 ) ;
#62 = ORIENTED_EDGE ( 'NONE', *, *, #112, .F. ) ;
#63 = EDGE_CURVE ( 'NONE', #85, #57, #52, .T. ) ;
#64 = DIRECTION ( 'NONE',  ( 0.0000000000000000000, 1.000000000000000000, 0.0000000000000000000 ) ) ;
#65 = CARTESIAN_POINT ( 'NONE',  ( 2.045446297615960988E-15, -0.9749999999999955369, 0.5858391035518748513 ) ) ;
#66 = AXIS2_PLACEMENT_3D ( 'NONE', #334, #55, #235 ) ;
#67 = COORDINATED_UNIVERSAL_TIME_OFFSET ( 1, 0, .AHEAD. ) ;
#68 = ORIENTED_EDGE ( 'NONE', *, *, #202, .T. ) ;
#69 = VERTEX_POINT ( 'NONE', #292 ) ;
#70 = CARTESIAN_POINT ( 'NONE',  ( 1.326762908760390423E-13, 0.7749999999999953593, 38.00000000000000000 ) ) ;
#71 = EDGE_CURVE ( 'NONE', #69, #267, #107, .T. ) ;
#72 = CALENDAR_DATE ( 2021, 3, 9 ) ;
#73 = CIRCLE ( 'NONE', #272, 0.9749999999999964251 ) ;
#74 = CC_DESIGN_APPROVAL ( #236, ( #14 ) ) ;
#75 = CALENDAR_DATE ( 2021, 3, 9 ) ;
#76 = APPROVAL_DATE_TIME ( #143, #253 ) ;
#77 = CARTESIAN_POINT ( 'NONE',  ( 1.326762908760390423E-13, -4.653657836759941941E-15, 38.00000000000000000 ) ) ;
#78 = ADVANCED_FACE ( 'NONE', ( #294 ), #190, .T. ) ;
#79 = CIRCLE ( 'NONE', #152, 0.7750000000000000222 ) ;
#80 = ADVANCED_FACE ( 'NONE', ( #7 ), #5, .T. ) ;
#81 =( GEOMETRIC_REPRESENTATION_CONTEXT ( 3 ) GLOBAL_UNCERTAINTY_ASSIGNED_CONTEXT ( ( #297 ) ) GLOBAL_UNIT_ASSIGNED_CONTEXT ( ( #114, #320, #211 ) ) REPRESENTATION_CONTEXT ( 'NONE', 'WORKASPACE' ) );
#82 = DIRECTION ( 'NONE',  ( -3.491481338843133355E-15, 1.224646799147353207E-16, -1.000000000000000000 ) ) ;
#83 = CARTESIAN_POINT ( 'NONE',  ( 3.142333204958820020E-14, 0.9749999999999953149, 9.000000000000000000 ) ) ;
#84 = APPLICATION_CONTEXT ( 'configuration controlled 3d designs of mechanical parts and assemblies' ) ;
#85 = VERTEX_POINT ( 'NONE', #220 ) ;
#86 = CARTESIAN_POINT ( 'NONE',  ( 3.142333204958820020E-14, 0.9749999999999953149, 9.000000000000000000 ) ) ;
#87 = CONICAL_SURFACE ( 'NONE', #103, 0.9749999999999954259, 1.029744258676649649 ) ;
#88 = VERTEX_POINT ( 'NONE', #274 ) ;
#89 = LINE ( 'NONE', #70, #255 ) ;
#90 = PERSON_AND_ORGANIZATION ( #280, #27 ) ;
#91 = DATE_AND_TIME ( #72, #184 ) ;
#92 = PERSON_AND_ORGANIZATION ( #280, #27 ) ;
#93 = ORIENTED_EDGE ( 'NONE', *, *, #63, .T. ) ;
#94 = APPROVAL_ROLE ( '' ) ;
#95 = VERTEX_POINT ( 'NONE', #242 ) ;
#96 = AXIS2_PLACEMENT_3D ( 'NONE', #181, #3, #159 ) ;
#97 = DIRECTION ( 'NONE',  ( -3.491481338843133355E-15, 1.224646799147353207E-16, -1.000000000000000000 ) ) ;
#98 = APPROVAL ( #277, 'UNSPECIFIED' ) ;
#99 = DIRECTION ( 'NONE',  ( 0.0000000000000000000, 1.000000000000000000, 0.0000000000000000000 ) ) ;
#100 = AXIS2_PLACEMENT_3D ( 'NONE', #25, #1, #317 ) ;
#101 = LOCAL_TIME ( 9, 21, 45.00000000000000000, #221 ) ;
#102 = DIRECTION ( 'NONE',  ( 3.491481338843133355E-15, -1.224646799147353207E-16, 1.000000000000000000 ) ) ;
#103 = AXIS2_PLACEMENT_3D ( 'NONE', #22, #102, #259 ) ;
#104 = CC_DESIGN_SECURITY_CLASSIFICATION ( #256, ( #14 ) ) ;
#105 = ADVANCED_FACE ( 'NONE', ( #168 ), #151, .T. ) ;
#106 = ORIENTED_EDGE ( 'NONE', *, *, #332, .F. ) ;
#107 = LINE ( 'NONE', #208, #130 ) ;
#108 = CC_DESIGN_PERSON_AND_ORGANIZATION_ASSIGNMENT ( #15, #116, ( #256 ) ) ;
#109 = DIRECTION ( 'NONE',  ( 4.275831445896958607E-31, 1.000000000000000000, 1.224646799147352961E-16 ) ) ;
#110 = CARTESIAN_POINT ( 'NONE',  ( 3.142333204958820020E-14, 7.311328940476512048E-33, 9.000000000000000000 ) ) ;
#111 = CARTESIAN_POINT ( 'NONE',  ( 1.194030629168660200E-16, -0.9749999999999958700, -1.194030629168668335E-16 ) ) ;
#112 = EDGE_CURVE ( 'NONE', #156, #49, #233, .T. ) ;
#113 = ORIENTED_EDGE ( 'NONE', *, *, #24, .T. ) ;
#114 =( LENGTH_UNIT ( ) NAMED_UNIT ( * ) SI_UNIT ( .MILLI., .METRE. ) );
#115 = DIRECTION ( 'NONE',  ( -3.491481338843133355E-15, 1.224646799147353207E-16, -1.000000000000000000 ) ) ;
#116 = PERSON_AND_ORGANIZATION_ROLE ( 'classification_officer' ) ;
#117 = EDGE_LOOP ( 'NONE', ( #173, #212 ) ) ;
#118 = APPLICATION_PROTOCOL_DEFINITION ( 'international standard', 'config_control_design', 1994, #324 ) ;
#119 = CARTESIAN_POINT ( 'NONE',  ( 0.0000000000000000000, 0.0000000000000000000, 0.0000000000000000000 ) ) ;
#120 = EDGE_LOOP ( 'NONE', ( #68, #169, #216, #325 ) ) ;
#121 = AXIS2_PLACEMENT_3D ( 'NONE', #260, #230, #262 ) ;
#122 = EDGE_LOOP ( 'NONE', ( #31, #304, #113 ) ) ;
#123 = CALENDAR_DATE ( 2021, 3, 9 ) ;
#124 = COORDINATED_UNIVERSAL_TIME_OFFSET ( 1, 0, .AHEAD. ) ;
#125 = ORIENTED_EDGE ( 'NONE', *, *, #180, .F. ) ;
#126 = CC_DESIGN_PERSON_AND_ORGANIZATION_ASSIGNMENT ( #90, #10, ( #14 ) ) ;
#127 = CARTESIAN_POINT ( 'NONE',  ( 4.168935659749516643E-31, 0.9749999999999958700, 1.194030629168664145E-16 ) ) ;
#128 = AXIS2_PLACEMENT_3D ( 'NONE', #119, #17, #9 ) ;
#129 = EDGE_CURVE ( 'NONE', #95, #85, #89, .T. ) ;
#130 = VECTOR ( 'NONE', #238, 1000.000000000000114 ) ;
#131 = CARTESIAN_POINT ( 'NONE',  ( 1.326762908760390423E-13, -4.653657836759941941E-15, 38.00000000000000000 ) ) ;
#132 = CARTESIAN_POINT ( 'NONE',  ( 3.142333204958820020E-14, 7.311328940476512048E-33, 9.000000000000000000 ) ) ;
#133 = PRODUCT ( '275', '275', '', ( #322 ) ) ;
#134 = PRODUCT_RELATED_PRODUCT_CATEGORY ( 'detail', '', ( #133 ) ) ;
#135 = CARTESIAN_POINT ( 'NONE',  ( 1.685379223651893123E-14, -0.9749999999999975353, 9.000000000000000000 ) ) ;
#136 = DIRECTION ( 'NONE',  ( -3.491481338843133355E-15, 1.224646799147353207E-16, -1.000000000000000000 ) ) ;
#137 = DIRECTION ( 'NONE',  ( -3.491481338843133355E-15, 1.224646799147353207E-16, -1.000000000000000000 ) ) ;
#138 = EDGE_LOOP ( 'NONE', ( #47, #38, #174, #36 ) ) ;
#139 = DIRECTION ( 'NONE',  ( 1.903218546456022717E-15, 0.8571673007021097801, 0.5150380749100585964 ) ) ;
#140 = CC_DESIGN_DATE_AND_TIME_ASSIGNMENT ( #145, #248, ( #199 ) ) ;
#141 = ORIENTED_EDGE ( 'NONE', *, *, #30, .T. ) ;
#142 = DIRECTION ( 'NONE',  ( -3.491481338843133355E-15, 1.224646799147353207E-16, -1.000000000000000000 ) ) ;
#143 = DATE_AND_TIME ( #275, #153 ) ;
#144 = EDGE_LOOP ( 'NONE', ( #150, #336, #93, #279 ) ) ;
#145 = DATE_AND_TIME ( #37, #308 ) ;
#146 = PERSON_AND_ORGANIZATION_ROLE ( 'creator' ) ;
#147 = CLOSED_SHELL ( 'NONE', ( #195, #105, #46, #210, #78, #282 ) ) ;
#148 = APPROVAL_PERSON_ORGANIZATION ( #172, #98, #192 ) ;
#149 = CARTESIAN_POINT ( 'NONE',  ( 2.045446297615961382E-15, -7.174459829801583942E-17, 0.5858391035518749623 ) ) ;
#150 = ORIENTED_EDGE ( 'NONE', *, *, #313, .F. ) ;
#151 = CYLINDRICAL_SURFACE ( 'NONE', #128, 0.9749999999999982014 ) ;
#152 = AXIS2_PLACEMENT_3D ( 'NONE', #131, #312, #266 ) ;
#153 = LOCAL_TIME ( 9, 21, 45.00000000000000000, #67 ) ;
#154 = ADVANCED_FACE ( 'NONE', ( #188 ), #218, .T. ) ;
#155 = AXIS2_PLACEMENT_3D ( 'NONE', #206, #82, #289 ) ;
#156 = VERTEX_POINT ( 'NONE', #300 ) ;
#157 = DIRECTION ( 'NONE',  ( 0.0000000000000000000, 1.000000000000000000, 0.0000000000000000000 ) ) ;
#158 = EDGE_LOOP ( 'NONE', ( #59, #141 ) ) ;
#159 = DIRECTION ( 'NONE',  ( 4.275831445896958607E-31, 1.000000000000000000, 1.224646799147353207E-16 ) ) ;
#160 = EDGE_CURVE ( 'NONE', #26, #156, #303, .T. ) ;
#161 = ORIENTED_EDGE ( 'NONE', *, *, #243, .F. ) ;
#162 = DIRECTION ( 'NONE',  ( -3.491481338843133355E-15, 1.224646799147353207E-16, -1.000000000000000000 ) ) ;
#163 = AXIS2_PLACEMENT_3D ( 'NONE', #305, #115, #213 ) ;
#164 = DIRECTION ( 'NONE',  ( 0.0000000000000000000, 1.000000000000000000, 0.0000000000000000000 ) ) ;
#165 = CARTESIAN_POINT ( 'NONE',  ( 3.142333204958820020E-14, -1.102182119232617714E-15, 9.000000000000000000 ) ) ;
#166 = DIRECTION ( 'NONE',  ( -4.275831445896958607E-31, -1.000000000000000000, -1.224646799147353207E-16 ) ) ;
#167 = LINE ( 'NONE', #111, #288 ) ;
#168 = FACE_OUTER_BOUND ( 'NONE', #120, .T. ) ;
#169 = ORIENTED_EDGE ( 'NONE', *, *, #313, .T. ) ;
#170 = DIRECTION ( 'NONE',  ( 1.000000000000000000, 0.0000000000000000000, 0.0000000000000000000 ) ) ;
#171 = EDGE_CURVE ( 'NONE', #11, #276, #73, .T. ) ;
#172 = PERSON_AND_ORGANIZATION ( #280, #27 ) ;
#173 = ORIENTED_EDGE ( 'NONE', *, *, #214, .F. ) ;
#174 = ORIENTED_EDGE ( 'NONE', *, *, #202, .F. ) ;
#175 = CONICAL_SURFACE ( 'NONE', #53, 0.7750000000000000222, 0.7853981633974512766 ) ;
#176 = FACE_OUTER_BOUND ( 'NONE', #333, .T. ) ;
#177 = VECTOR ( 'NONE', #139, 999.9999999999998863 ) ;
#178 = ORIENTED_EDGE ( 'NONE', *, *, #129, .T. ) ;
#179 = CIRCLE ( 'NONE', #301, 0.9749999999999999778 ) ;
#180 = EDGE_CURVE ( 'NONE', #276, #49, #254, .T. ) ;
#181 = CARTESIAN_POINT ( 'NONE',  ( 1.326762908760390423E-13, 5.811569157814627755E-33, 38.00000000000000000 ) ) ;
#182 = ORIENTED_EDGE ( 'NONE', *, *, #225, .F. ) ;
#183 = CARTESIAN_POINT ( 'NONE',  ( 4.168935659749526277E-31, 0.9749999999999982014, 1.194030629168667349E-16 ) ) ;
#184 = LOCAL_TIME ( 9, 21, 45.00000000000000000, #124 ) ;
#185 = ORIENTED_EDGE ( 'NONE', *, *, #269, .F. ) ;
#186 = CARTESIAN_POINT ( 'NONE',  ( 0.0000000000000000000, 0.0000000000000000000, 0.0000000000000000000 ) ) ;
#187 = PERSON_AND_ORGANIZATION ( #280, #27 ) ;
#188 = FACE_OUTER_BOUND ( 'NONE', #122, .T. ) ;
#189 = DATE_AND_TIME ( #123, #331 ) ;
#190 = CONICAL_SURFACE ( 'NONE', #66, 0.7750000000000000222, 0.7853981633974512766 ) ;
#191 = PERSON_AND_ORGANIZATION_ROLE ( 'design_owner' ) ;
#192 = APPROVAL_ROLE ( '' ) ;
#193 = ORIENTED_EDGE ( 'NONE', *, *, #160, .T. ) ;
#194 = APPROVAL_DATE_TIME ( #189, #98 ) ;
#195 = ADVANCED_FACE ( 'NONE', ( #257 ), #175, .T. ) ;
#196 = CIRCLE ( 'NONE', #258, 0.9749999999999999778 ) ;
#197 = CC_DESIGN_DATE_AND_TIME_ASSIGNMENT ( #215, #302, ( #256 ) ) ;
#198 = FACE_OUTER_BOUND ( 'NONE', #158, .T. ) ;
#199 = PRODUCT_DEFINITION ( 'UNKNOWN', '', #14, #232 ) ;
#200 = APPROVAL_PERSON_ORGANIZATION ( #222, #236, #16 ) ;
#201 = CARTESIAN_POINT ( 'NONE',  ( 1.319779946082704535E-13, -4.629164900776995227E-15, 37.79999999999999716 ) ) ;
#202 = EDGE_CURVE ( 'NONE', #85, #267, #196, .T. ) ;
#203 = ORIENTED_EDGE ( 'NONE', *, *, #269, .T. ) ;
#204 = DIRECTION ( 'NONE',  ( 0.0000000000000000000, 1.000000000000000000, 0.0000000000000000000 ) ) ;
#205 = AXIS2_PLACEMENT_3D ( 'NONE', #110, #271, #327 ) ;
#206 = CARTESIAN_POINT ( 'NONE',  ( 2.045446297615961382E-15, -7.174459829801583942E-17, 0.5858391035518749623 ) ) ;
#207 = CYLINDRICAL_SURFACE ( 'NONE', #100, 0.9749999999999958700 ) ;
#208 = CARTESIAN_POINT ( 'NONE',  ( 1.327712010029729866E-13, -0.7750000000000046851, 38.00000000000000000 ) ) ;
#209 = CARTESIAN_POINT ( 'NONE',  ( 1.194030629168663159E-16, -0.9749999999999982014, -1.194030629168671294E-16 ) ) ;
#210 = ADVANCED_FACE ( 'NONE', ( #318 ), #293, .T. ) ;
#211 =( NAMED_UNIT ( * ) SI_UNIT ( $, .STERADIAN. ) SOLID_ANGLE_UNIT ( ) );
#212 = ORIENTED_EDGE ( 'NONE', *, *, #171, .F. ) ;
#213 = DIRECTION ( 'NONE',  ( 3.950625526948194478E-31, 1.000000000000000000, 1.112002228190266129E-16 ) ) ;
#214 = EDGE_CURVE ( 'NONE', #276, #11, #311, .T. ) ;
#215 = DATE_AND_TIME ( #75, #101 ) ;
#216 = ORIENTED_EDGE ( 'NONE', *, *, #326, .F. ) ;
#217 = CARTESIAN_POINT ( 'NONE',  ( 0.0000000000000000000, 0.0000000000000000000, 0.0000000000000000000 ) ) ;
#218 = CONICAL_SURFACE ( 'NONE', #319, 0.9749999999999954259, 1.029744258676649649 ) ;
#219 = ORIENTED_EDGE ( 'NONE', *, *, #71, .F. ) ;
#220 = CARTESIAN_POINT ( 'NONE',  ( 1.319779946082704535E-13, 0.9749999999999953149, 37.79999999999999716 ) ) ;
#221 = COORDINATED_UNIVERSAL_TIME_OFFSET ( 1, 0, .AHEAD. ) ;
#222 = PERSON_AND_ORGANIZATION ( #280, #27 ) ;
#223 = ORIENTED_EDGE ( 'NONE', *, *, #214, .T. ) ;
#224 = CIRCLE ( 'NONE', #287, 0.7750000000000000222 ) ;
#225 = EDGE_CURVE ( 'NONE', #95, #69, #224, .T. ) ;
#226 = ADVANCED_BREP_SHAPE_REPRESENTATION ( '275', ( #51, #48, #264 ), #81 ) ;
#227 = AXIS2_PLACEMENT_3D ( 'NONE', #186, #4, #109 ) ;
#228 = ORIENTED_EDGE ( 'NONE', *, *, #335, .F. ) ;
#229 = DIRECTION ( 'NONE',  ( -3.491481338843133355E-15, 1.224646799147353207E-16, -1.000000000000000000 ) ) ;
#230 = DIRECTION ( 'NONE',  ( -3.491481338843133355E-15, 1.224646799147353207E-16, -1.000000000000000000 ) ) ;
#231 = PLANE ( 'NONE',  #96 ) ;
#232 = DESIGN_CONTEXT ( 'detailed design', #84, 'design' ) ;
#233 = CIRCLE ( 'NONE', #163, 0.9749999999999954259 ) ;
#234 = CYLINDRICAL_SURFACE ( 'NONE', #227, 0.9749999999999958700 ) ;
#235 = DIRECTION ( 'NONE',  ( 0.0000000000000000000, 1.000000000000000000, 0.0000000000000000000 ) ) ;
#236 = APPROVAL ( #278, 'UNSPECIFIED' ) ;
#237 = ORIENTED_EDGE ( 'NONE', *, *, #112, .T. ) ;
#238 = DIRECTION ( 'NONE',  ( -2.382254525458708792E-15, -0.7071067811865495711, -0.7071067811865455743 ) ) ;
#239 = AXIS2_PLACEMENT_3D ( 'NONE', #263, #229, #290 ) ;
#240 = EDGE_LOOP ( 'NONE', ( #219, #203, #178, #161 ) ) ;
#241 = DIRECTION ( 'NONE',  ( -3.491481338843133355E-15, 1.224646799147353207E-16, -1.000000000000000000 ) ) ;
#242 = CARTESIAN_POINT ( 'NONE',  ( 1.326762908760390423E-13, 0.7749999999999953593, 38.00000000000000000 ) ) ;
#243 = EDGE_CURVE ( 'NONE', #267, #85, #179, .T. ) ;
#244 = PERSON_AND_ORGANIZATION ( #280, #27 ) ;
#245 = EDGE_LOOP ( 'NONE', ( #182, #185 ) ) ;
#246 = DIRECTION ( 'NONE',  ( 0.0000000000000000000, 1.000000000000000000, 0.0000000000000000000 ) ) ;
#247 = DIRECTION ( 'NONE',  ( -3.950625526948194478E-31, -1.000000000000000000, -1.112002228190266129E-16 ) ) ;
#248 = DATE_TIME_ROLE ( 'creation_date' ) ;
#249 = CLOSED_SHELL ( 'NONE', ( #296, #154, #44, #286, #80 ) ) ;
#250 = SECURITY_CLASSIFICATION_LEVEL ( 'unclassified' ) ;
#251 = AXIS2_PLACEMENT_3D ( 'NONE', #6, #162, #204 ) ;
#252 = DIRECTION ( 'NONE',  ( 1.798245827342160317E-15, -0.8571673007021098911, 0.5150380749100582634 ) ) ;
#253 = APPROVAL ( #306, 'UNSPECIFIED' ) ;
#254 = LINE ( 'NONE', #127, #8 ) ;
#255 = VECTOR ( 'NONE', #281, 1000.000000000000114 ) ;
#256 = SECURITY_CLASSIFICATION ( '', '', #250 ) ;
#257 = FACE_OUTER_BOUND ( 'NONE', #138, .T. ) ;
#258 = AXIS2_PLACEMENT_3D ( 'NONE', #330, #45, #164 ) ;
#259 = DIRECTION ( 'NONE',  ( -3.950625526948194478E-31, -1.000000000000000000, -1.112002228190266129E-16 ) ) ;
#260 = CARTESIAN_POINT ( 'NONE',  ( 3.142333204958820020E-14, -1.102182119232617714E-15, 9.000000000000000000 ) ) ;
#261 = FACE_OUTER_BOUND ( 'NONE', #329, .T. ) ;
#262 = DIRECTION ( 'NONE',  ( 0.0000000000000000000, 1.000000000000000000, 0.0000000000000000000 ) ) ;
#263 = CARTESIAN_POINT ( 'NONE',  ( 0.0000000000000000000, 0.0000000000000000000, 0.0000000000000000000 ) ) ;
#264 = AXIS2_PLACEMENT_3D ( 'NONE', #217, #60, #170 ) ;
#265 = CC_DESIGN_PERSON_AND_ORGANIZATION_ASSIGNMENT ( #187, #191, ( #133 ) ) ;
#266 = DIRECTION ( 'NONE',  ( 0.0000000000000000000, 1.000000000000000000, 0.0000000000000000000 ) ) ;
#267 = VERTEX_POINT ( 'NONE', #314 ) ;
#268 = ORIENTED_EDGE ( 'NONE', *, *, #335, .T. ) ;
#269 = EDGE_CURVE ( 'NONE', #69, #95, #79, .T. ) ;
#270 = CARTESIAN_POINT ( 'NONE',  ( 2.164849360532827994E-15, 0.9749999999999953149, 0.5858391035518750734 ) ) ;
#271 = DIRECTION ( 'NONE',  ( 3.491481338843133355E-15, -1.224646799147353207E-16, 1.000000000000000000 ) ) ;
#272 = AXIS2_PLACEMENT_3D ( 'NONE', #35, #142, #246 ) ;
#273 = APPROVAL_PERSON_ORGANIZATION ( #92, #253, #94 ) ;
#274 = CARTESIAN_POINT ( 'NONE',  ( 8.182006639184614374E-14, -0.9749999999999974243, 9.000000000000000000 ) ) ;
#275 = CALENDAR_DATE ( 2021, 3, 9 ) ;
#276 = VERTEX_POINT ( 'NONE', #83 ) ;
#277 = APPROVAL_STATUS ( 'not_yet_approved' ) ;
#278 = APPROVAL_STATUS ( 'not_yet_approved' ) ;
#279 = ORIENTED_EDGE ( 'NONE', *, *, #30, .F. ) ;
#280 = PERSON ( 'UNSPECIFIED', 'UNSPECIFIED', 'UNSPECIFIED', ('UNSPECIFIED'), ('UNSPECIFIED'), ('UNSPECIFIED') ) ;
#281 = DIRECTION ( 'NONE',  ( -2.468850131082257455E-15, 0.7071067811865497932, -0.7071067811865453523 ) ) ;
#282 = ADVANCED_FACE ( 'NONE', ( #28 ), #231, .F. ) ;
#283 = AXIS2_PLACEMENT_3D ( 'NONE', #132, #2, #166 ) ;
#284 = ORIENTED_EDGE ( 'NONE', *, *, #24, .F. ) ;
#285 = PERSON_AND_ORGANIZATION ( #280, #27 ) ;
#286 = ADVANCED_FACE ( 'NONE', ( #261 ), #207, .T. ) ;
#287 = AXIS2_PLACEMENT_3D ( 'NONE', #54, #136, #50 ) ;
#288 = VECTOR ( 'NONE', #241, 1000.000000000000000 ) ;
#289 = DIRECTION ( 'NONE',  ( 3.950625526948194478E-31, 1.000000000000000000, 1.112002228190266129E-16 ) ) ;
#290 = DIRECTION ( 'NONE',  ( 4.275831445896957731E-31, 1.000000000000000000, 1.224646799147353454E-16 ) ) ;
#291 = ORIENTED_EDGE ( 'NONE', *, *, #171, .T. ) ;
#292 = CARTESIAN_POINT ( 'NONE',  ( 1.324342993370801253E-13, -0.7750000000000046851, 38.00000000000000000 ) ) ;
#293 = CYLINDRICAL_SURFACE ( 'NONE', #239, 0.9749999999999982014 ) ;
#294 = FACE_OUTER_BOUND ( 'NONE', #240, .T. ) ;
#295 = LINE ( 'NONE', #209, #328 ) ;
#296 = ADVANCED_FACE ( 'NONE', ( #29 ), #234, .T. ) ;
#297 = UNCERTAINTY_MEASURE_WITH_UNIT (LENGTH_MEASURE( 1.000000000000000082E-05 ), #114, 'distance_accuracy_value', 'NONE');
#298 = CC_DESIGN_PERSON_AND_ORGANIZATION_ASSIGNMENT ( #285, #41, ( #199 ) ) ;
#299 = DIRECTION ( 'NONE',  ( -3.491481338843133355E-15, 1.224646799147353207E-16, -1.000000000000000000 ) ) ;
#300 = CARTESIAN_POINT ( 'NONE',  ( 2.045446297615960988E-15, -0.9749999999999955369, 0.5858391035518748513 ) ) ;
#301 = AXIS2_PLACEMENT_3D ( 'NONE', #201, #310, #157 ) ;
#302 = DATE_TIME_ROLE ( 'classification_date' ) ;
#303 = LINE ( 'NONE', #65, #43 ) ;
#304 = ORIENTED_EDGE ( 'NONE', *, *, #332, .T. ) ;
#305 = CARTESIAN_POINT ( 'NONE',  ( 2.045446297615961382E-15, -7.174459829801583942E-17, 0.5858391035518749623 ) ) ;
#306 = APPROVAL_STATUS ( 'not_yet_approved' ) ;
#307 = CIRCLE ( 'NONE', #337, 0.9749999999999964251 ) ;
#308 = LOCAL_TIME ( 9, 21, 45.00000000000000000, #323 ) ;
#309 = CC_DESIGN_PERSON_AND_ORGANIZATION_ASSIGNMENT ( #244, #146, ( #14 ) ) ;
#310 = DIRECTION ( 'NONE',  ( -3.491481338843133355E-15, 1.224646799147353207E-16, -1.000000000000000000 ) ) ;
#311 = CIRCLE ( 'NONE', #251, 0.9749999999999964251 ) ;
#312 = DIRECTION ( 'NONE',  ( -3.491481338843133355E-15, 1.224646799147353207E-16, -1.000000000000000000 ) ) ;
#313 = EDGE_CURVE ( 'NONE', #267, #88, #295, .T. ) ;
#314 = CARTESIAN_POINT ( 'NONE',  ( 8.182006639184599228E-14, -0.9750000000000047518, 37.79999999999999716 ) ) ;
#315 = CARTESIAN_POINT ( 'NONE',  ( 2.164849360532827994E-15, 0.9749999999999953149, 0.5858391035518750734 ) ) ;
#316 = CARTESIAN_POINT ( 'NONE',  ( 0.0000000000000000000, 0.0000000000000000000, 0.0000000000000000000 ) ) ;
#317 = DIRECTION ( 'NONE',  ( 4.275831445896958607E-31, 1.000000000000000000, 1.224646799147352961E-16 ) ) ;
#318 = FACE_OUTER_BOUND ( 'NONE', #144, .T. ) ;
#319 = AXIS2_PLACEMENT_3D ( 'NONE', #149, #39, #247 ) ;
#320 =( NAMED_UNIT ( * ) PLANE_ANGLE_UNIT ( ) SI_UNIT ( $, .RADIAN. ) );
#321 = EDGE_LOOP ( 'NONE', ( #223, #268, #284, #125 ) ) ;
#322 = MECHANICAL_CONTEXT ( 'NONE', #324, 'mechanical' ) ;
#323 = COORDINATED_UNIVERSAL_TIME_OFFSET ( 1, 0, .AHEAD. ) ;
#324 = APPLICATION_CONTEXT ( 'configuration controlled 3d designs of mechanical parts and assemblies' ) ;
#325 = ORIENTED_EDGE ( 'NONE', *, *, #63, .F. ) ;
#326 = EDGE_CURVE ( 'NONE', #57, #88, #307, .T. ) ;
#327 = DIRECTION ( 'NONE',  ( -4.275831445896958607E-31, -1.000000000000000000, -1.224646799147353207E-16 ) ) ;
#328 = VECTOR ( 'NONE', #58, 1000.000000000000000 ) ;
#329 = EDGE_LOOP ( 'NONE', ( #228, #291, #13, #62 ) ) ;
#330 = CARTESIAN_POINT ( 'NONE',  ( 1.319779946082704535E-13, -4.629164900776995227E-15, 37.79999999999999716 ) ) ;
#331 = LOCAL_TIME ( 9, 21, 45.00000000000000000, #12 ) ;
#332 = EDGE_CURVE ( 'NONE', #26, #49, #32, .T. ) ;
#333 = EDGE_LOOP ( 'NONE', ( #106, #193, #237 ) ) ;
#334 = CARTESIAN_POINT ( 'NONE',  ( 1.326762908760390423E-13, -4.653657836759941941E-15, 38.00000000000000000 ) ) ;
#335 = EDGE_CURVE ( 'NONE', #11, #156, #167, .T. ) ;
#336 = ORIENTED_EDGE ( 'NONE', *, *, #243, .T. ) ;
#337 = AXIS2_PLACEMENT_3D ( 'NONE', #165, #299, #64 ) ;
ENDSEC;
END-ISO-10303-21;
