ISO-10303-21;
HEADER;
FILE_DESCRIPTION (( 'STEP AP203' ),
    '1' );
FILE_NAME ('274.step',
    '2021-09-03T07:21:45',
    ( '' ),
    ( '' ),
    'SwSTEP 2.0',
    'SolidWorks 2019',
    '' );
FILE_SCHEMA (( 'CONFIG_CONTROL_DESIGN' ));
ENDSEC;

DATA;
#1 = CARTESIAN_POINT ( 'NONE',  ( 1.992998956651449572E-15, -6.990499321345132502E-17, 0.5708175880761857668 ) ) ;
#2 = DATE_AND_TIME ( #280, #138 ) ;
#3 = CARTESIAN_POINT ( 'NONE',  ( 3.142333204958820020E-14, -1.102182119232617714E-15, 9.000000000000000000 ) ) ;
#4 = EDGE_CURVE ( 'NONE', #105, #243, #152, .T. ) ;
#5 = DIRECTION ( 'NONE',  ( 4.054589356604726834E-31, 1.000000000000000000, 1.141265444721589181E-16 ) ) ;
#6 = DIRECTION ( 'NONE',  ( 4.275831445896958607E-31, 1.000000000000000000, 1.224646799147353454E-16 ) ) ;
#7 = CARTESIAN_POINT ( 'NONE',  ( 2.109340402570447647E-15, 0.9499999999999952927, 0.5708175880761858778 ) ) ;
#8 = VERTEX_POINT ( 'NONE', #289 ) ;
#9 = ORIENTED_EDGE ( 'NONE', *, *, #331, .F. ) ;
#10 = AXIS2_PLACEMENT_3D ( 'NONE', #1, #263, #176 ) ;
#11 = APPLICATION_PROTOCOL_DEFINITION ( 'international standard', 'config_control_design', 1994, #62 ) ;
#12 = ORIENTED_EDGE ( 'NONE', *, *, #236, .F. ) ;
#13 = CLOSED_SHELL ( 'NONE', ( #262, #258, #334, #188, #52 ) ) ;
#14 = PRODUCT_DEFINITION_FORMATION_WITH_SPECIFIED_SOURCE ( 'ANY', '', #71, .NOT_KNOWN. ) ;
#15 = VERTEX_POINT ( 'NONE', #232 ) ;
#16 = APPROVAL_STATUS ( 'not_yet_approved' ) ;
#17 = AXIS2_PLACEMENT_3D ( 'NONE', #310, #274, #196 ) ;
#18 = VERTEX_POINT ( 'NONE', #287 ) ;
#19 = COORDINATED_UNIVERSAL_TIME_OFFSET ( 1, 0, .AHEAD. ) ;
#20 = PRODUCT_DEFINITION_SHAPE ( 'NONE', 'NONE',  #148 ) ;
#21 = ADVANCED_FACE ( 'NONE', ( #47 ), #121, .T. ) ;
#22 = DATE_AND_TIME ( #150, #337 ) ;
#23 = DIRECTION ( 'NONE',  ( 0.0000000000000000000, 1.000000000000000000, 0.0000000000000000000 ) ) ;
#24 = VECTOR ( 'NONE', #294, 1000.000000000000000 ) ;
#25 = DIRECTION ( 'NONE',  ( 0.0000000000000000000, 1.000000000000000000, 0.0000000000000000000 ) ) ;
#26 = CARTESIAN_POINT ( 'NONE',  ( 1.327681393859751126E-13, -0.7500000000000046629, 38.00000000000000000 ) ) ;
#27 = EDGE_CURVE ( 'NONE', #243, #105, #53, .T. ) ;
#28 = DIRECTION ( 'NONE',  ( 0.0000000000000000000, 1.000000000000000000, 0.0000000000000000000 ) ) ;
#29 = AXIS2_PLACEMENT_3D ( 'NONE', #38, #42, #75 ) ;
#30 = VERTEX_POINT ( 'NONE', #103 ) ;
#31 = EDGE_CURVE ( 'NONE', #18, #181, #328, .T. ) ;
#32 = CARTESIAN_POINT ( 'NONE',  ( 3.142333204958820020E-14, -1.102182119232617714E-15, 9.000000000000000000 ) ) ;
#33 = ORIENTED_EDGE ( 'NONE', *, *, #4, .T. ) ;
#34 = CARTESIAN_POINT ( 'NONE',  ( 1.326762908760390423E-13, -4.653657836759941941E-15, 38.00000000000000000 ) ) ;
#35 = EDGE_LOOP ( 'NONE', ( #215, #162, #126, #238 ) ) ;
#36 = AXIS2_PLACEMENT_3D ( 'NONE', #113, #98, #281 ) ;
#37 = EDGE_CURVE ( 'NONE', #156, #243, #225, .T. ) ;
#38 = CARTESIAN_POINT ( 'NONE',  ( 1.326762908760390423E-13, -4.653657836759941941E-15, 38.00000000000000000 ) ) ;
#39 = CC_DESIGN_APPROVAL ( #297, ( #125 ) ) ;
#40 = APPROVAL_ROLE ( '' ) ;
#41 = PERSON_AND_ORGANIZATION ( #317, #64 ) ;
#42 = DIRECTION ( 'NONE',  ( -3.491481338843133355E-15, 1.224646799147353207E-16, -1.000000000000000000 ) ) ;
#43 = AXIS2_PLACEMENT_3D ( 'NONE', #319, #237, #186 ) ;
#44 = DIRECTION ( 'NONE',  ( 4.275831445896958607E-31, 1.000000000000000000, 1.224646799147353454E-16 ) ) ;
#45 = PERSON_AND_ORGANIZATION ( #317, #64 ) ;
#46 = PERSON_AND_ORGANIZATION ( #317, #64 ) ;
#47 = FACE_OUTER_BOUND ( 'NONE', #333, .T. ) ;
#48 = CARTESIAN_POINT ( 'NONE',  ( 1.324312377200822765E-13, -0.7500000000000046629, 38.00000000000000000 ) ) ;
#49 = CARTESIAN_POINT ( 'NONE',  ( 1.992998956651449572E-15, -6.990499321345132502E-17, 0.5708175880761857668 ) ) ;
#50 = CARTESIAN_POINT ( 'NONE',  ( 1.326762908760390423E-13, 0.7499999999999953371, 38.00000000000000000 ) ) ;
#51 = MANIFOLD_SOLID_BREP ( 'Corps-Déplacer/Copier1[2]', #13 ) ;
#52 = ADVANCED_FACE ( 'NONE', ( #167 ), #276, .T. ) ;
#53 = CIRCLE ( 'NONE', #224, 0.9499999999999954037 ) ;
#54 = ORIENTED_EDGE ( 'NONE', *, *, #277, .T. ) ;
#55 = CONICAL_SURFACE ( 'NONE', #29, 0.7500000000000000000, 0.7853981633974512766 ) ;
#56 = DIRECTION ( 'NONE',  ( 0.0000000000000000000, 1.000000000000000000, 0.0000000000000000000 ) ) ;
#57 = CARTESIAN_POINT ( 'NONE',  ( 0.0000000000000000000, 0.0000000000000000000, 0.0000000000000000000 ) ) ;
#58 = CARTESIAN_POINT ( 'NONE',  ( 0.0000000000000000000, 0.0000000000000000000, 0.0000000000000000000 ) ) ;
#59 = DIRECTION ( 'NONE',  ( -4.275831445896958607E-31, -1.000000000000000000, -1.224646799147353207E-16 ) ) ;
#60 = EDGE_LOOP ( 'NONE', ( #190, #206 ) ) ;
#61 = ADVANCED_FACE ( 'NONE', ( #332 ), #55, .T. ) ;
#62 = APPLICATION_CONTEXT ( 'configuration controlled 3d designs of mechanical parts and assemblies' ) ;
#63 = MECHANICAL_CONTEXT ( 'NONE', #62, 'mechanical' ) ;
#64 = ORGANIZATION ( 'UNSPECIFIED', 'UNSPECIFIED', '' ) ;
#65 = PERSON_AND_ORGANIZATION_ROLE ( 'creator' ) ;
#66 = CARTESIAN_POINT ( 'NONE',  ( 1.163414459189976561E-16, -0.9499999999999959588, -1.163414459189984696E-16 ) ) ;
#67 = ORIENTED_EDGE ( 'NONE', *, *, #112, .F. ) ;
#68 = EDGE_CURVE ( 'NONE', #15, #18, #255, .T. ) ;
#69 = AXIS2_PLACEMENT_3D ( 'NONE', #154, #321, #86 ) ;
#70 = LINE ( 'NONE', #279, #183 ) ;
#71 = PRODUCT ( '274', '274', '', ( #63 ) ) ;
#72 = PERSON_AND_ORGANIZATION_ROLE ( 'creator' ) ;
#73 = ADVANCED_FACE ( 'NONE', ( #311 ), #141, .T. ) ;
#74 = DIRECTION ( 'NONE',  ( -3.491481338843133355E-15, 1.224646799147353207E-16, -1.000000000000000000 ) ) ;
#75 = DIRECTION ( 'NONE',  ( 0.0000000000000000000, 1.000000000000000000, 0.0000000000000000000 ) ) ;
#76 = SECURITY_CLASSIFICATION_LEVEL ( 'unclassified' ) ;
#77 = PLANE ( 'NONE',  #226 ) ;
#78 = APPROVAL_ROLE ( '' ) ;
#79 = DIRECTION ( 'NONE',  ( -3.491481338843133355E-15, 1.224646799147353207E-16, -1.000000000000000000 ) ) ;
#80 = CONICAL_SURFACE ( 'NONE', #43, 0.9499999999999954037, 1.029744258676649649 ) ;
#81 = LINE ( 'NONE', #180, #145 ) ;
#82 = LINE ( 'NONE', #200, #24 ) ;
#83 = ORIENTED_EDGE ( 'NONE', *, *, #184, .F. ) ;
#84 = CARTESIAN_POINT ( 'NONE',  ( 8.181700477484826968E-14, -0.9499999999999975131, 9.000000000000000000 ) ) ;
#85 = ORIENTED_EDGE ( 'NONE', *, *, #217, .T. ) ;
#86 = DIRECTION ( 'NONE',  ( 0.0000000000000000000, 1.000000000000000000, 0.0000000000000000000 ) ) ;
#87 = CC_DESIGN_DATE_AND_TIME_ASSIGNMENT ( #275, #252, ( #125 ) ) ;
#88 = ORIENTED_EDGE ( 'NONE', *, *, #140, .T. ) ;
#89 = AXIS2_PLACEMENT_3D ( 'NONE', #296, #203, #291 ) ;
#90 = DIRECTION ( 'NONE',  ( -3.491481338843133355E-15, 1.224646799147353207E-16, -1.000000000000000000 ) ) ;
#91 = ADVANCED_FACE ( 'NONE', ( #146 ), #77, .F. ) ;
#92 = AXIS2_PLACEMENT_3D ( 'NONE', #117, #172, #23 ) ;
#93 = CC_DESIGN_PERSON_AND_ORGANIZATION_ASSIGNMENT ( #46, #72, ( #148 ) ) ;
#94 = VECTOR ( 'NONE', #163, 1000.000000000000000 ) ;
#95 = PERSON_AND_ORGANIZATION ( #317, #64 ) ;
#96 = VECTOR ( 'NONE', #102, 999.9999999999998863 ) ;
#97 = ORIENTED_EDGE ( 'NONE', *, *, #236, .T. ) ;
#98 = DIRECTION ( 'NONE',  ( 3.491481338843133355E-15, -1.224646799147353207E-16, 1.000000000000000000 ) ) ;
#99 = APPROVAL_STATUS ( 'not_yet_approved' ) ;
#100 = APPROVAL_PERSON_ORGANIZATION ( #284, #297, #40 ) ;
#101 = ORIENTED_EDGE ( 'NONE', *, *, #160, .F. ) ;
#102 = DIRECTION ( 'NONE',  ( 1.903218546456022717E-15, 0.8571673007021097801, 0.5150380749100585964 ) ) ;
#103 = CARTESIAN_POINT ( 'NONE',  ( 3.142333204958820020E-14, 0.9499999999999952927, 9.000000000000000000 ) ) ;
#104 = CARTESIAN_POINT ( 'NONE',  ( 1.992998956651449178E-15, -0.9499999999999955147, 0.5708175880761856558 ) ) ;
#105 = VERTEX_POINT ( 'NONE', #209 ) ;
#106 = EDGE_LOOP ( 'NONE', ( #101, #301, #315 ) ) ;
#107 = EDGE_LOOP ( 'NONE', ( #266, #97, #124, #298 ) ) ;
#108 = ORIENTED_EDGE ( 'NONE', *, *, #143, .F. ) ;
#109 = CYLINDRICAL_SURFACE ( 'NONE', #292, 0.9499999999999959588 ) ;
#110 = LOCAL_TIME ( 9, 21, 45.00000000000000000, #254 ) ;
#111 = APPLICATION_PROTOCOL_DEFINITION ( 'international standard', 'config_control_design', 1994, #144 ) ;
#112 = EDGE_CURVE ( 'NONE', #18, #15, #136, .T. ) ;
#113 = CARTESIAN_POINT ( 'NONE',  ( 3.142333204958820020E-14, 7.123858967643781215E-33, 9.000000000000000000 ) ) ;
#114 = AXIS2_PLACEMENT_3D ( 'NONE', #34, #74, #164 ) ;
#115 = COORDINATED_UNIVERSAL_TIME_OFFSET ( 1, 0, .AHEAD. ) ;
#116 = PERSON_AND_ORGANIZATION ( #317, #64 ) ;
#117 = CARTESIAN_POINT ( 'NONE',  ( 3.142333204958820020E-14, -1.102182119232617714E-15, 9.000000000000000000 ) ) ;
#118 = CC_DESIGN_PERSON_AND_ORGANIZATION_ASSIGNMENT ( #95, #249, ( #71 ) ) ;
#119 = SHAPE_DEFINITION_REPRESENTATION ( #20, #246 ) ;
#120 = CC_DESIGN_SECURITY_CLASSIFICATION ( #125, ( #14 ) ) ;
#121 = CYLINDRICAL_SURFACE ( 'NONE', #198, 0.9499999999999981792 ) ;
#122 = CARTESIAN_POINT ( 'NONE',  ( 1.326762908760390423E-13, -4.653657836759941941E-15, 38.00000000000000000 ) ) ;
#123 = DIRECTION ( 'NONE',  ( -3.491481338843133355E-15, 1.224646799147353207E-16, -1.000000000000000000 ) ) ;
#124 = ORIENTED_EDGE ( 'NONE', *, *, #68, .F. ) ;
#125 = SECURITY_CLASSIFICATION ( '', '', #76 ) ;
#126 = ORIENTED_EDGE ( 'NONE', *, *, #325, .T. ) ;
#127 = CC_DESIGN_PERSON_AND_ORGANIZATION_ASSIGNMENT ( #41, #65, ( #14 ) ) ;
#128 = FACE_OUTER_BOUND ( 'NONE', #35, .T. ) ;
#129 = CARTESIAN_POINT ( 'NONE',  ( 3.142333204958820020E-14, 7.123858967643781215E-33, 9.000000000000000000 ) ) ;
#130 = ORIENTED_EDGE ( 'NONE', *, *, #31, .T. ) ;
#131 = ORIENTED_EDGE ( 'NONE', *, *, #68, .T. ) ;
#132 = DIRECTION ( 'NONE',  ( 1.798245827342160317E-15, -0.8571673007021098911, 0.5150380749100582634 ) ) ;
#133 = DIRECTION ( 'NONE',  ( 1.000000000000000000, 0.0000000000000000000, 0.0000000000000000000 ) ) ;
#134 = EDGE_LOOP ( 'NONE', ( #299, #235, #244, #9 ) ) ;
#135 = CLOSED_SHELL ( 'NONE', ( #210, #21, #272, #73, #61, #91 ) ) ;
#136 = CIRCLE ( 'NONE', #69, 0.9499999999999999556 ) ;
#137 = ORIENTED_EDGE ( 'NONE', *, *, #171, .F. ) ;
#138 = LOCAL_TIME ( 9, 21, 45.00000000000000000, #19 ) ;
#139 = ORIENTED_EDGE ( 'NONE', *, *, #277, .F. ) ;
#140 = EDGE_CURVE ( 'NONE', #242, #15, #267, .T. ) ;
#141 = CYLINDRICAL_SURFACE ( 'NONE', #189, 0.9499999999999981792 ) ;
#142 = PERSON_AND_ORGANIZATION_ROLE ( 'design_supplier' ) ;
#143 = EDGE_CURVE ( 'NONE', #242, #208, #219, .T. ) ;
#144 = APPLICATION_CONTEXT ( 'configuration controlled 3d designs of mechanical parts and assemblies' ) ;
#145 = VECTOR ( 'NONE', #132, 1000.000000000000000 ) ;
#146 = FACE_OUTER_BOUND ( 'NONE', #295, .T. ) ;
#147 = CALENDAR_DATE ( 2021, 3, 9 ) ;
#148 = PRODUCT_DEFINITION ( 'UNKNOWN', '', #14, #149 ) ;
#149 = DESIGN_CONTEXT ( 'detailed design', #144, 'design' ) ;
#150 = CALENDAR_DATE ( 2021, 3, 9 ) ;
#151 = FACE_OUTER_BOUND ( 'NONE', #107, .T. ) ;
#152 = CIRCLE ( 'NONE', #10, 0.9499999999999954037 ) ;
#153 = LINE ( 'NONE', #26, #257 ) ;
#154 = CARTESIAN_POINT ( 'NONE',  ( 1.319779946082704535E-13, -4.629164900776995227E-15, 37.79999999999999716 ) ) ;
#155 = CC_DESIGN_PERSON_AND_ORGANIZATION_ASSIGNMENT ( #313, #142, ( #14 ) ) ;
#156 = VERTEX_POINT ( 'NONE', #233 ) ;
#157 = MANIFOLD_SOLID_BREP ( 'Corps-Déplacer/Copier1[1]', #135 ) ;
#158 = CIRCLE ( 'NONE', #89, 0.9499999999999964029 ) ;
#159 = ORIENTED_EDGE ( 'NONE', *, *, #4, .F. ) ;
#160 = EDGE_CURVE ( 'NONE', #326, #105, #264, .T. ) ;
#161 = DIRECTION ( 'NONE',  ( 4.275831445896959482E-31, 1.000000000000000000, 1.224646799147353207E-16 ) ) ;
#162 = ORIENTED_EDGE ( 'NONE', *, *, #197, .T. ) ;
#163 = DIRECTION ( 'NONE',  ( -3.491481338843133355E-15, 1.224646799147353207E-16, -1.000000000000000000 ) ) ;
#164 = DIRECTION ( 'NONE',  ( 0.0000000000000000000, 1.000000000000000000, 0.0000000000000000000 ) ) ;
#165 = CC_DESIGN_APPROVAL ( #191, ( #148 ) ) ;
#166 = COORDINATED_UNIVERSAL_TIME_OFFSET ( 1, 0, .AHEAD. ) ;
#167 = FACE_OUTER_BOUND ( 'NONE', #185, .T. ) ;
#168 = DIRECTION ( 'NONE',  ( -3.491481338843133355E-15, 1.224646799147353207E-16, -1.000000000000000000 ) ) ;
#169 = LOCAL_TIME ( 9, 21, 45.00000000000000000, #286 ) ;
#170 = APPROVAL_STATUS ( 'not_yet_approved' ) ;
#171 = EDGE_CURVE ( 'NONE', #30, #181, #205, .T. ) ;
#172 = DIRECTION ( 'NONE',  ( -3.491481338843133355E-15, 1.224646799147353207E-16, -1.000000000000000000 ) ) ;
#173 = CARTESIAN_POINT ( 'NONE',  ( 1.326762908760390423E-13, 5.624099184981896238E-33, 38.00000000000000000 ) ) ;
#174 = PERSON_AND_ORGANIZATION ( #317, #64 ) ;
#175 = CC_DESIGN_PERSON_AND_ORGANIZATION_ASSIGNMENT ( #174, #218, ( #125 ) ) ;
#176 = DIRECTION ( 'NONE',  ( 4.054589356604726834E-31, 1.000000000000000000, 1.141265444721589181E-16 ) ) ;
#177 = DIRECTION ( 'NONE',  ( -3.491481338843133355E-15, 1.224646799147353207E-16, -1.000000000000000000 ) ) ;
#178 = AXIS2_PLACEMENT_3D ( 'NONE', #3, #228, #323 ) ;
#179 = CARTESIAN_POINT ( 'NONE',  ( 1.326762908760390423E-13, 0.7499999999999953371, 38.00000000000000000 ) ) ;
#180 = CARTESIAN_POINT ( 'NONE',  ( 1.992998956651449178E-15, -0.9499999999999955147, 0.5708175880761856558 ) ) ;
#181 = VERTEX_POINT ( 'NONE', #84 ) ;
#182 = EDGE_LOOP ( 'NONE', ( #85, #250, #159, #322 ) ) ;
#183 = VECTOR ( 'NONE', #229, 1000.000000000000000 ) ;
#184 = EDGE_CURVE ( 'NONE', #326, #243, #81, .T. ) ;
#185 = EDGE_LOOP ( 'NONE', ( #303, #239 ) ) ;
#186 = DIRECTION ( 'NONE',  ( -4.054589356604726834E-31, -1.000000000000000000, -1.141265444721589181E-16 ) ) ;
#187 = EDGE_LOOP ( 'NONE', ( #83, #212, #33 ) ) ;
#188 = ADVANCED_FACE ( 'NONE', ( #128 ), #109, .T. ) ;
#189 = AXIS2_PLACEMENT_3D ( 'NONE', #251, #168, #44 ) ;
#190 = ORIENTED_EDGE ( 'NONE', *, *, #171, .T. ) ;
#191 = APPROVAL ( #16, 'UNSPECIFIED' ) ;
#192 = VECTOR ( 'NONE', #201, 1000.000000000000000 ) ;
#193 = AXIS2_PLACEMENT_3D ( 'NONE', #285, #222, #336 ) ;
#194 = APPROVAL_ROLE ( '' ) ;
#195 = DATE_AND_TIME ( #147, #283 ) ;
#196 = DIRECTION ( 'NONE',  ( 0.0000000000000000000, 1.000000000000000000, 0.0000000000000000000 ) ) ;
#197 = EDGE_CURVE ( 'NONE', #156, #8, #312, .T. ) ;
#198 = AXIS2_PLACEMENT_3D ( 'NONE', #202, #79, #6 ) ;
#199 = AXIS2_PLACEMENT_3D ( 'NONE', #58, #90, #161 ) ;
#200 = CARTESIAN_POINT ( 'NONE',  ( 4.062039873602093948E-31, 0.9499999999999959588, 1.163414459189980506E-16 ) ) ;
#201 = DIRECTION ( 'NONE',  ( -3.491481338843133355E-15, 1.224646799147353207E-16, -1.000000000000000000 ) ) ;
#202 = CARTESIAN_POINT ( 'NONE',  ( 0.0000000000000000000, 0.0000000000000000000, 0.0000000000000000000 ) ) ;
#203 = DIRECTION ( 'NONE',  ( -3.491481338843133355E-15, 1.224646799147353207E-16, -1.000000000000000000 ) ) ;
#204 = FACE_OUTER_BOUND ( 'NONE', #187, .T. ) ;
#205 = CIRCLE ( 'NONE', #330, 0.9499999999999964029 ) ;
#206 = ORIENTED_EDGE ( 'NONE', *, *, #331, .T. ) ;
#207 = ORIENTED_EDGE ( 'NONE', *, *, #314, .F. ) ;
#208 = VERTEX_POINT ( 'NONE', #48 ) ;
#209 = CARTESIAN_POINT ( 'NONE',  ( 2.109340402570447647E-15, 0.9499999999999952927, 0.5708175880761858778 ) ) ;
#210 = ADVANCED_FACE ( 'NONE', ( #151 ), #318, .T. ) ;
#211 =( NAMED_UNIT ( * ) PLANE_ANGLE_UNIT ( ) SI_UNIT ( $, .RADIAN. ) );
#212 = ORIENTED_EDGE ( 'NONE', *, *, #160, .T. ) ;
#213 = DIRECTION ( 'NONE',  ( 4.275831445896959482E-31, 1.000000000000000000, 1.224646799147353207E-16 ) ) ;
#214 = CONICAL_SURFACE ( 'NONE', #193, 0.9499999999999954037, 1.029744258676649649 ) ;
#215 = ORIENTED_EDGE ( 'NONE', *, *, #37, .F. ) ;
#216 =( LENGTH_UNIT ( ) NAMED_UNIT ( * ) SI_UNIT ( .MILLI., .METRE. ) );
#217 = EDGE_CURVE ( 'NONE', #8, #156, #158, .T. ) ;
#218 = PERSON_AND_ORGANIZATION_ROLE ( 'classification_officer' ) ;
#219 = CIRCLE ( 'NONE', #300, 0.7500000000000000000 ) ;
#220 = APPROVAL_DATE_TIME ( #22, #297 ) ;
#221 = APPROVAL_DATE_TIME ( #195, #309 ) ;
#222 = DIRECTION ( 'NONE',  ( 3.491481338843133355E-15, -1.224646799147353207E-16, 1.000000000000000000 ) ) ;
#223 = UNCERTAINTY_MEASURE_WITH_UNIT (LENGTH_MEASURE( 1.000000000000000082E-05 ), #216, 'distance_accuracy_value', 'NONE');
#224 = AXIS2_PLACEMENT_3D ( 'NONE', #49, #230, #5 ) ;
#225 = LINE ( 'NONE', #66, #94 ) ;
#226 = AXIS2_PLACEMENT_3D ( 'NONE', #173, #316, #240 ) ;
#227 = FACE_OUTER_BOUND ( 'NONE', #106, .T. ) ;
#228 = DIRECTION ( 'NONE',  ( -3.491481338843133355E-15, 1.224646799147353207E-16, -1.000000000000000000 ) ) ;
#229 = DIRECTION ( 'NONE',  ( -3.491481338843133355E-15, 1.224646799147353207E-16, -1.000000000000000000 ) ) ;
#230 = DIRECTION ( 'NONE',  ( -3.491481338843133355E-15, 1.224646799147353207E-16, -1.000000000000000000 ) ) ;
#231 = DIRECTION ( 'NONE',  ( -2.382254525458708792E-15, -0.7071067811865495711, -0.7071067811865455743 ) ) ;
#232 = CARTESIAN_POINT ( 'NONE',  ( 1.319779946082704535E-13, 0.9499999999999952927, 37.79999999999999716 ) ) ;
#233 = CARTESIAN_POINT ( 'NONE',  ( 1.682450694903881310E-14, -0.9499999999999975131, 9.000000000000000000 ) ) ;
#234 = CIRCLE ( 'NONE', #92, 0.9499999999999964029 ) ;
#235 = ORIENTED_EDGE ( 'NONE', *, *, #112, .T. ) ;
#236 = EDGE_CURVE ( 'NONE', #208, #18, #153, .T. ) ;
#237 = DIRECTION ( 'NONE',  ( 3.491481338843133355E-15, -1.224646799147353207E-16, 1.000000000000000000 ) ) ;
#238 = ORIENTED_EDGE ( 'NONE', *, *, #27, .F. ) ;
#239 = ORIENTED_EDGE ( 'NONE', *, *, #197, .F. ) ;
#240 = DIRECTION ( 'NONE',  ( 4.275831445896958607E-31, 1.000000000000000000, 1.224646799147353207E-16 ) ) ;
#241 = DIRECTION ( 'NONE',  ( 3.491481338843133355E-15, -1.224646799147353207E-16, 1.000000000000000000 ) ) ;
#242 = VERTEX_POINT ( 'NONE', #50 ) ;
#243 = VERTEX_POINT ( 'NONE', #104 ) ;
#244 = ORIENTED_EDGE ( 'NONE', *, *, #314, .T. ) ;
#245 = VECTOR ( 'NONE', #288, 1000.000000000000114 ) ;
#246 = ADVANCED_BREP_SHAPE_REPRESENTATION ( '274', ( #157, #51, #278 ), #265 ) ;
#247 = CALENDAR_DATE ( 2021, 3, 9 ) ;
#248 = AXIS2_PLACEMENT_3D ( 'NONE', #256, #177, #25 ) ;
#249 = PERSON_AND_ORGANIZATION_ROLE ( 'design_owner' ) ;
#250 = ORIENTED_EDGE ( 'NONE', *, *, #37, .T. ) ;
#251 = CARTESIAN_POINT ( 'NONE',  ( 0.0000000000000000000, 0.0000000000000000000, 0.0000000000000000000 ) ) ;
#252 = DATE_TIME_ROLE ( 'classification_date' ) ;
#253 = CARTESIAN_POINT ( 'NONE',  ( 1.163414459189979273E-16, -0.9499999999999981792, -1.163414459189987162E-16 ) ) ;
#254 = COORDINATED_UNIVERSAL_TIME_OFFSET ( 1, 0, .AHEAD. ) ;
#255 = CIRCLE ( 'NONE', #17, 0.9499999999999999556 ) ;
#256 = CARTESIAN_POINT ( 'NONE',  ( 1.326762908760390423E-13, -4.653657836759941941E-15, 38.00000000000000000 ) ) ;
#257 = VECTOR ( 'NONE', #231, 1000.000000000000114 ) ;
#258 = ADVANCED_FACE ( 'NONE', ( #204 ), #80, .T. ) ;
#259 = CARTESIAN_POINT ( 'NONE',  ( 0.0000000000000000000, 0.0000000000000000000, 0.0000000000000000000 ) ) ;
#260 = FACE_OUTER_BOUND ( 'NONE', #60, .T. ) ;
#261 = DIRECTION ( 'NONE',  ( -3.491481338843133355E-15, 1.224646799147353207E-16, -1.000000000000000000 ) ) ;
#262 = ADVANCED_FACE ( 'NONE', ( #269 ), #302, .T. ) ;
#263 = DIRECTION ( 'NONE',  ( -3.491481338843133355E-15, 1.224646799147353207E-16, -1.000000000000000000 ) ) ;
#264 = LINE ( 'NONE', #7, #96 ) ;
#265 =( GEOMETRIC_REPRESENTATION_CONTEXT ( 3 ) GLOBAL_UNCERTAINTY_ASSIGNED_CONTEXT ( ( #223 ) ) GLOBAL_UNIT_ASSIGNED_CONTEXT ( ( #216, #211, #270 ) ) REPRESENTATION_CONTEXT ( 'NONE', 'WORKASPACE' ) );
#266 = ORIENTED_EDGE ( 'NONE', *, *, #143, .T. ) ;
#267 = LINE ( 'NONE', #179, #245 ) ;
#268 = DIRECTION ( 'NONE',  ( 0.0000000000000000000, 0.0000000000000000000, 1.000000000000000000 ) ) ;
#269 = FACE_OUTER_BOUND ( 'NONE', #182, .T. ) ;
#270 =( NAMED_UNIT ( * ) SI_UNIT ( $, .STERADIAN. ) SOLID_ANGLE_UNIT ( ) );
#271 = EDGE_LOOP ( 'NONE', ( #12, #54, #88, #67 ) ) ;
#272 = ADVANCED_FACE ( 'NONE', ( #260 ), #304, .F. ) ;
#273 = AXIS2_PLACEMENT_3D ( 'NONE', #129, #241, #59 ) ;
#274 = DIRECTION ( 'NONE',  ( -3.491481338843133355E-15, 1.224646799147353207E-16, -1.000000000000000000 ) ) ;
#275 = DATE_AND_TIME ( #247, #169 ) ;
#276 = PLANE ( 'NONE',  #36 ) ;
#277 = EDGE_CURVE ( 'NONE', #208, #242, #307, .T. ) ;
#278 = AXIS2_PLACEMENT_3D ( 'NONE', #57, #268, #133 ) ;
#279 = CARTESIAN_POINT ( 'NONE',  ( 4.062039873602102706E-31, 0.9499999999999981792, 1.163414459189983464E-16 ) ) ;
#280 = CALENDAR_DATE ( 2021, 3, 9 ) ;
#281 = DIRECTION ( 'NONE',  ( -4.275831445896958607E-31, -1.000000000000000000, -1.224646799147353207E-16 ) ) ;
#282 = APPROVAL_DATE_TIME ( #308, #191 ) ;
#283 = LOCAL_TIME ( 9, 21, 45.00000000000000000, #166 ) ;
#284 = PERSON_AND_ORGANIZATION ( #317, #64 ) ;
#285 = CARTESIAN_POINT ( 'NONE',  ( 1.992998956651449572E-15, -6.990499321345132502E-17, 0.5708175880761857668 ) ) ;
#286 = COORDINATED_UNIVERSAL_TIME_OFFSET ( 1, 0, .AHEAD. ) ;
#287 = CARTESIAN_POINT ( 'NONE',  ( 8.181700477484811822E-14, -0.9500000000000045075, 37.79999999999999716 ) ) ;
#288 = DIRECTION ( 'NONE',  ( -2.468850131082257455E-15, 0.7071067811865497932, -0.7071067811865453523 ) ) ;
#289 = CARTESIAN_POINT ( 'NONE',  ( 3.142333204958820020E-14, 0.9499999999999952927, 9.000000000000000000 ) ) ;
#290 = APPROVAL_PERSON_ORGANIZATION ( #116, #309, #78 ) ;
#291 = DIRECTION ( 'NONE',  ( 0.0000000000000000000, 1.000000000000000000, 0.0000000000000000000 ) ) ;
#292 = AXIS2_PLACEMENT_3D ( 'NONE', #293, #123, #213 ) ;
#293 = CARTESIAN_POINT ( 'NONE',  ( 0.0000000000000000000, 0.0000000000000000000, 0.0000000000000000000 ) ) ;
#294 = DIRECTION ( 'NONE',  ( -3.491481338843133355E-15, 1.224646799147353207E-16, -1.000000000000000000 ) ) ;
#295 = EDGE_LOOP ( 'NONE', ( #108, #139 ) ) ;
#296 = CARTESIAN_POINT ( 'NONE',  ( 3.142333204958820020E-14, -1.102182119232617714E-15, 9.000000000000000000 ) ) ;
#297 = APPROVAL ( #99, 'UNSPECIFIED' ) ;
#298 = ORIENTED_EDGE ( 'NONE', *, *, #140, .F. ) ;
#299 = ORIENTED_EDGE ( 'NONE', *, *, #31, .F. ) ;
#300 = AXIS2_PLACEMENT_3D ( 'NONE', #122, #261, #56 ) ;
#301 = ORIENTED_EDGE ( 'NONE', *, *, #184, .T. ) ;
#302 = CYLINDRICAL_SURFACE ( 'NONE', #199, 0.9499999999999959588 ) ;
#303 = ORIENTED_EDGE ( 'NONE', *, *, #217, .F. ) ;
#304 = PLANE ( 'NONE',  #273 ) ;
#305 = PRODUCT_RELATED_PRODUCT_CATEGORY ( 'detail', '', ( #71 ) ) ;
#306 = CALENDAR_DATE ( 2021, 3, 9 ) ;
#307 = CIRCLE ( 'NONE', #114, 0.7500000000000000000 ) ;
#308 = DATE_AND_TIME ( #306, #110 ) ;
#309 = APPROVAL ( #170, 'UNSPECIFIED' ) ;
#310 = CARTESIAN_POINT ( 'NONE',  ( 1.319779946082704535E-13, -4.629164900776995227E-15, 37.79999999999999716 ) ) ;
#311 = FACE_OUTER_BOUND ( 'NONE', #134, .T. ) ;
#312 = CIRCLE ( 'NONE', #178, 0.9499999999999964029 ) ;
#313 = PERSON_AND_ORGANIZATION ( #317, #64 ) ;
#314 = EDGE_CURVE ( 'NONE', #15, #30, #70, .T. ) ;
#315 = ORIENTED_EDGE ( 'NONE', *, *, #27, .T. ) ;
#316 = DIRECTION ( 'NONE',  ( -3.491481338843133355E-15, 1.224646799147353207E-16, -1.000000000000000000 ) ) ;
#317 = PERSON ( 'UNSPECIFIED', 'UNSPECIFIED', 'UNSPECIFIED', ('UNSPECIFIED'), ('UNSPECIFIED'), ('UNSPECIFIED') ) ;
#318 = CONICAL_SURFACE ( 'NONE', #248, 0.7500000000000000000, 0.7853981633974512766 ) ;
#319 = CARTESIAN_POINT ( 'NONE',  ( 1.992998956651449572E-15, -6.990499321345132502E-17, 0.5708175880761857668 ) ) ;
#320 = DIRECTION ( 'NONE',  ( -3.491481338843133355E-15, 1.224646799147353207E-16, -1.000000000000000000 ) ) ;
#321 = DIRECTION ( 'NONE',  ( -3.491481338843133355E-15, 1.224646799147353207E-16, -1.000000000000000000 ) ) ;
#322 = ORIENTED_EDGE ( 'NONE', *, *, #325, .F. ) ;
#323 = DIRECTION ( 'NONE',  ( 0.0000000000000000000, 1.000000000000000000, 0.0000000000000000000 ) ) ;
#324 = APPROVAL_PERSON_ORGANIZATION ( #45, #191, #194 ) ;
#325 = EDGE_CURVE ( 'NONE', #8, #105, #82, .T. ) ;
#326 = VERTEX_POINT ( 'NONE', #259 ) ;
#327 = CC_DESIGN_APPROVAL ( #309, ( #14 ) ) ;
#328 = LINE ( 'NONE', #253, #192 ) ;
#329 = CC_DESIGN_DATE_AND_TIME_ASSIGNMENT ( #2, #335, ( #148 ) ) ;
#330 = AXIS2_PLACEMENT_3D ( 'NONE', #32, #320, #28 ) ;
#331 = EDGE_CURVE ( 'NONE', #181, #30, #234, .T. ) ;
#332 = FACE_OUTER_BOUND ( 'NONE', #271, .T. ) ;
#333 = EDGE_LOOP ( 'NONE', ( #131, #130, #137, #207 ) ) ;
#334 = ADVANCED_FACE ( 'NONE', ( #227 ), #214, .T. ) ;
#335 = DATE_TIME_ROLE ( 'creation_date' ) ;
#336 = DIRECTION ( 'NONE',  ( -4.054589356604726834E-31, -1.000000000000000000, -1.141265444721589181E-16 ) ) ;
#337 = LOCAL_TIME ( 9, 21, 45.00000000000000000, #115 ) ;
ENDSEC;
END-ISO-10303-21;
