ISO-10303-21;
HEADER;
FILE_DESCRIPTION (( 'STEP AP203' ),
    '1' );
FILE_NAME ('272.step',
    '2021-09-03T07:21:44',
    ( '' ),
    ( '' ),
    'SwSTEP 2.0',
    'SolidWorks 2019',
    '' );
FILE_SCHEMA (( 'CONFIG_CONTROL_DESIGN' ));
ENDSEC;

DATA;
#1 = CALENDAR_DATE ( 2021, 3, 9 ) ;
#2 =( NAMED_UNIT ( * ) PLANE_ANGLE_UNIT ( ) SI_UNIT ( $, .RADIAN. ) );
#3 = DIRECTION ( 'NONE',  ( -3.491481338843133355E-15, 1.224646799147353207E-16, -1.000000000000000000 ) ) ;
#4 = DIRECTION ( 'NONE',  ( 4.275831445896958607E-31, 1.000000000000000000, 1.224646799147353207E-16 ) ) ;
#5 = CARTESIAN_POINT ( 'NONE',  ( 0.0000000000000000000, 0.0000000000000000000, 0.0000000000000000000 ) ) ;
#6 = CC_DESIGN_DATE_AND_TIME_ASSIGNMENT ( #310, #77, ( #213 ) ) ;
#7 = FACE_OUTER_BOUND ( 'NONE', #232, .T. ) ;
#8 = PERSON_AND_ORGANIZATION_ROLE ( 'classification_officer' ) ;
#9 = AXIS2_PLACEMENT_3D ( 'NONE', #287, #259, #289 ) ;
#10 = CIRCLE ( 'NONE', #88, 0.6999999999999999556 ) ;
#11 = VERTEX_POINT ( 'NONE', #29 ) ;
#12 = FACE_OUTER_BOUND ( 'NONE', #276, .T. ) ;
#13 = CARTESIAN_POINT ( 'NONE',  ( 3.142333204958820020E-14, 0.8999999999999953593, 9.000000000000000000 ) ) ;
#14 = COORDINATED_UNIVERSAL_TIME_OFFSET ( 1, 0, .AHEAD. ) ;
#15 = VECTOR ( 'NONE', #282, 1000.000000000000000 ) ;
#16 = VECTOR ( 'NONE', #325, 1000.000000000000114 ) ;
#17 = ORIENTED_EDGE ( 'NONE', *, *, #57, .F. ) ;
#18 = DIRECTION ( 'NONE',  ( -3.491481338843133355E-15, 1.224646799147353207E-16, -1.000000000000000000 ) ) ;
#19 = ORIENTED_EDGE ( 'NONE', *, *, #333, .F. ) ;
#20 = AXIS2_PLACEMENT_3D ( 'NONE', #5, #122, #4 ) ;
#21 = LOCAL_TIME ( 9, 21, 44.00000000000000000, #234 ) ;
#22 = PERSON_AND_ORGANIZATION ( #36, #251 ) ;
#23 = DIRECTION ( 'NONE',  ( 0.0000000000000000000, 1.000000000000000000, 0.0000000000000000000 ) ) ;
#24 = LINE ( 'NONE', #120, #161 ) ;
#25 = CARTESIAN_POINT ( 'NONE',  ( 3.142333204958820020E-14, 6.748919021978315445E-33, 9.000000000000000000 ) ) ;
#26 = DIRECTION ( 'NONE',  ( -3.491481338843133355E-15, 1.224646799147353207E-16, -1.000000000000000000 ) ) ;
#27 = FACE_OUTER_BOUND ( 'NONE', #268, .T. ) ;
#28 = ADVANCED_FACE ( 'NONE', ( #192 ), #59, .T. ) ;
#29 = CARTESIAN_POINT ( 'NONE',  ( 8.181088154085238272E-14, -0.9000000000000046851, 37.79999999999999716 ) ) ;
#30 = VERTEX_POINT ( 'NONE', #318 ) ;
#31 = AXIS2_PLACEMENT_3D ( 'NONE', #62, #299, #320 ) ;
#32 = AXIS2_PLACEMENT_3D ( 'NONE', #280, #272, #104 ) ;
#33 = DIRECTION ( 'NONE',  ( 1.798245827342159528E-15, -0.8571673007021100021, 0.5150380749100580413 ) ) ;
#34 = ADVANCED_FACE ( 'NONE', ( #171 ), #92, .T. ) ;
#35 = LINE ( 'NONE', #147, #296 ) ;
#36 = PERSON ( 'UNSPECIFIED', 'UNSPECIFIED', 'UNSPECIFIED', ('UNSPECIFIED'), ('UNSPECIFIED'), ('UNSPECIFIED') ) ;
#37 = DIRECTION ( 'NONE',  ( 0.0000000000000000000, 1.000000000000000000, 0.0000000000000000000 ) ) ;
#38 = PERSON_AND_ORGANIZATION_ROLE ( 'design_owner' ) ;
#39 = ORIENTED_EDGE ( 'NONE', *, *, #82, .T. ) ;
#40 = CARTESIAN_POINT ( 'NONE',  ( 1.888104274722424374E-15, -6.622578304432228391E-17, 0.5407745571248072647 ) ) ;
#41 = EDGE_CURVE ( 'NONE', #201, #290, #311, .T. ) ;
#42 = CYLINDRICAL_SURFACE ( 'NONE', #69, 0.8999999999999958034 ) ;
#43 = APPROVAL_DATE_TIME ( #203, #319 ) ;
#44 = DIRECTION ( 'NONE',  ( 0.0000000000000000000, 1.000000000000000000, 0.0000000000000000000 ) ) ;
#45 = VERTEX_POINT ( 'NONE', #90 ) ;
#46 = AXIS2_PLACEMENT_3D ( 'NONE', #96, #168, #260 ) ;
#47 = DIRECTION ( 'NONE',  ( 1.000000000000000000, 0.0000000000000000000, 0.0000000000000000000 ) ) ;
#48 = CC_DESIGN_SECURITY_CLASSIFICATION ( #162, ( #298 ) ) ;
#49 = APPROVAL ( #50, 'UNSPECIFIED' ) ;
#50 = APPROVAL_STATUS ( 'not_yet_approved' ) ;
#51 = AXIS2_PLACEMENT_3D ( 'NONE', #230, #286, #238 ) ;
#52 = CARTESIAN_POINT ( 'NONE',  ( 1.326762908760390423E-13, -4.653657836759941941E-15, 38.00000000000000000 ) ) ;
#53 = DATE_AND_TIME ( #138, #317 ) ;
#54 = CARTESIAN_POINT ( 'NONE',  ( 3.142333204958820020E-14, -1.102182119232617714E-15, 9.000000000000000000 ) ) ;
#55 = MANIFOLD_SOLID_BREP ( 'Corps-Déplacer/Copier1[2]', #315 ) ;
#56 = VECTOR ( 'NONE', #154, 1000.000000000000000 ) ;
#57 = EDGE_CURVE ( 'NONE', #201, #11, #124, .T. ) ;
#58 = DIRECTION ( 'NONE',  ( -3.491481338843133355E-15, 1.224646799147353207E-16, -1.000000000000000000 ) ) ;
#59 = PLANE ( 'NONE',  #9 ) ;
#60 = CARTESIAN_POINT ( 'NONE',  ( 1.326762908760390423E-13, 0.6999999999999952927, 38.00000000000000000 ) ) ;
#61 = CIRCLE ( 'NONE', #198, 0.8999999999999963585 ) ;
#62 = CARTESIAN_POINT ( 'NONE',  ( 1.888104274722424374E-15, -6.622578304432228391E-17, 0.5407745571248072647 ) ) ;
#63 = CARTESIAN_POINT ( 'NONE',  ( 3.142333204958820020E-14, -1.102182119232617714E-15, 9.000000000000000000 ) ) ;
#64 = PERSON_AND_ORGANIZATION ( #36, #251 ) ;
#65 = DIRECTION ( 'NONE',  ( -3.491481338843133355E-15, 1.224646799147353207E-16, -1.000000000000000000 ) ) ;
#66 = MECHANICAL_CONTEXT ( 'NONE', #68, 'mechanical' ) ;
#67 = DIRECTION ( 'NONE',  ( -3.491481338843133355E-15, 1.224646799147353207E-16, -1.000000000000000000 ) ) ;
#68 = APPLICATION_CONTEXT ( 'configuration controlled 3d designs of mechanical parts and assemblies' ) ;
#69 = AXIS2_PLACEMENT_3D ( 'NONE', #132, #67, #246 ) ;
#70 = APPROVAL_ROLE ( '' ) ;
#71 = ORIENTED_EDGE ( 'NONE', *, *, #109, .T. ) ;
#72 = LINE ( 'NONE', #128, #16 ) ;
#73 = DIRECTION ( 'NONE',  ( -3.491481338843133355E-15, 1.224646799147353207E-16, -1.000000000000000000 ) ) ;
#74 = ORIENTED_EDGE ( 'NONE', *, *, #209, .T. ) ;
#75 = APPLICATION_PROTOCOL_DEFINITION ( 'international standard', 'config_control_design', 1994, #68 ) ;
#76 = ORIENTED_EDGE ( 'NONE', *, *, #82, .F. ) ;
#77 = DATE_TIME_ROLE ( 'creation_date' ) ;
#78 = VECTOR ( 'NONE', #164, 1000.000000000000114 ) ;
#79 = VERTEX_POINT ( 'NONE', #60 ) ;
#80 = CARTESIAN_POINT ( 'NONE',  ( 3.848248301307255126E-31, 0.8999999999999982458, 1.102182119232615816E-16 ) ) ;
#81 = PERSON_AND_ORGANIZATION_ROLE ( 'creator' ) ;
#82 = EDGE_CURVE ( 'NONE', #306, #334, #61, .T. ) ;
#83 = VERTEX_POINT ( 'NONE', #292 ) ;
#84 = LINE ( 'NONE', #190, #177 ) ;
#85 = EDGE_CURVE ( 'NONE', #215, #79, #191, .T. ) ;
#86 = ORIENTED_EDGE ( 'NONE', *, *, #257, .T. ) ;
#87 = ORIENTED_EDGE ( 'NONE', *, *, #165, .T. ) ;
#88 = AXIS2_PLACEMENT_3D ( 'NONE', #226, #244, #37 ) ;
#89 = SECURITY_CLASSIFICATION_LEVEL ( 'unclassified' ) ;
#90 = CARTESIAN_POINT ( 'NONE',  ( 8.181088154085253418E-14, -0.8999999999999974687, 9.000000000000000000 ) ) ;
#91 = FACE_OUTER_BOUND ( 'NONE', #210, .T. ) ;
#92 = CONICAL_SURFACE ( 'NONE', #336, 0.6999999999999999556, 0.7853981633974512766 ) ;
#93 = APPLICATION_CONTEXT ( 'configuration controlled 3d designs of mechanical parts and assemblies' ) ;
#94 = LOCAL_TIME ( 9, 21, 44.00000000000000000, #275 ) ;
#95 = ORIENTED_EDGE ( 'NONE', *, *, #223, .T. ) ;
#96 = CARTESIAN_POINT ( 'NONE',  ( 0.0000000000000000000, 0.0000000000000000000, 0.0000000000000000000 ) ) ;
#97 = DIRECTION ( 'NONE',  ( 0.0000000000000000000, 1.000000000000000000, 0.0000000000000000000 ) ) ;
#98 = EDGE_LOOP ( 'NONE', ( #285, #76 ) ) ;
#99 = DIRECTION ( 'NONE',  ( -3.491481338843133355E-15, 1.224646799147353207E-16, -1.000000000000000000 ) ) ;
#100 = CONICAL_SURFACE ( 'NONE', #31, 0.8999999999999954703, 1.029744258676649871 ) ;
#101 = CIRCLE ( 'NONE', #150, 0.8999999999999954703 ) ;
#102 = ORIENTED_EDGE ( 'NONE', *, *, #205, .T. ) ;
#103 = ORIENTED_EDGE ( 'NONE', *, *, #85, .F. ) ;
#104 = DIRECTION ( 'NONE',  ( 0.0000000000000000000, 1.000000000000000000, 0.0000000000000000000 ) ) ;
#105 = ADVANCED_FACE ( 'NONE', ( #143 ), #112, .T. ) ;
#106 = ORIENTED_EDGE ( 'NONE', *, *, #41, .T. ) ;
#107 = DIRECTION ( 'NONE',  ( 4.279844320860545916E-31, 1.000000000000000000, 1.204669080539455507E-16 ) ) ;
#108 = APPROVAL_DATE_TIME ( #53, #49 ) ;
#109 = EDGE_CURVE ( 'NONE', #215, #11, #84, .T. ) ;
#110 = PERSON_AND_ORGANIZATION ( #36, #251 ) ;
#111 = CLOSED_SHELL ( 'NONE', ( #301, #127, #328, #170, #34, #180 ) ) ;
#112 = CONICAL_SURFACE ( 'NONE', #220, 0.8999999999999954703, 1.029744258676649871 ) ;
#113 = DIRECTION ( 'NONE',  ( 3.491481338843133355E-15, -1.224646799147353207E-16, 1.000000000000000000 ) ) ;
#114 = CIRCLE ( 'NONE', #178, 0.8999999999999963585 ) ;
#115 = CARTESIAN_POINT ( 'NONE',  ( 1.676593637407855475E-14, -0.8999999999999974687, 9.000000000000000000 ) ) ;
#116 = PRODUCT_DEFINITION_SHAPE ( 'NONE', 'NONE',  #213 ) ;
#117 = PLANE ( 'NONE',  #331 ) ;
#118 = ORIENTED_EDGE ( 'NONE', *, *, #193, .F. ) ;
#119 = VECTOR ( 'NONE', #222, 1000.000000000000000 ) ;
#120 = CARTESIAN_POINT ( 'NONE',  ( 1.888104274722423980E-15, -0.8999999999999955813, 0.5407745571248071537 ) ) ;
#121 = EDGE_CURVE ( 'NONE', #30, #83, #24, .T. ) ;
#122 = DIRECTION ( 'NONE',  ( -3.491481338843133355E-15, 1.224646799147353207E-16, -1.000000000000000000 ) ) ;
#123 = DIRECTION ( 'NONE',  ( -3.491481338843133355E-15, 1.224646799147353207E-16, -1.000000000000000000 ) ) ;
#124 = CIRCLE ( 'NONE', #149, 0.9000000000000000222 ) ;
#125 = APPROVAL_PERSON_ORGANIZATION ( #183, #319, #70 ) ;
#126 = CYLINDRICAL_SURFACE ( 'NONE', #46, 0.8999999999999982458 ) ;
#127 = ADVANCED_FACE ( 'NONE', ( #91 ), #172, .T. ) ;
#128 = CARTESIAN_POINT ( 'NONE',  ( 1.326762908760390423E-13, 0.6999999999999952927, 38.00000000000000000 ) ) ;
#129 = ORIENTED_EDGE ( 'NONE', *, *, #200, .T. ) ;
#130 = CARTESIAN_POINT ( 'NONE',  ( 0.0000000000000000000, 0.0000000000000000000, 0.0000000000000000000 ) ) ;
#131 = CARTESIAN_POINT ( 'NONE',  ( 3.142333204958820020E-14, -1.102182119232617714E-15, 9.000000000000000000 ) ) ;
#132 = CARTESIAN_POINT ( 'NONE',  ( 0.0000000000000000000, 0.0000000000000000000, 0.0000000000000000000 ) ) ;
#133 = ADVANCED_FACE ( 'NONE', ( #218 ), #100, .T. ) ;
#134 = CALENDAR_DATE ( 2021, 3, 9 ) ;
#135 = ORIENTED_EDGE ( 'NONE', *, *, #186, .T. ) ;
#136 = CARTESIAN_POINT ( 'NONE',  ( 3.142333204958820020E-14, -1.102182119232617714E-15, 9.000000000000000000 ) ) ;
#137 = CC_DESIGN_DATE_AND_TIME_ASSIGNMENT ( #323, #196, ( #162 ) ) ;
#138 = CALENDAR_DATE ( 2021, 3, 9 ) ;
#139 = EDGE_LOOP ( 'NONE', ( #86, #71, #17, #239 ) ) ;
#140 = CC_DESIGN_PERSON_AND_ORGANIZATION_ASSIGNMENT ( #197, #38, ( #189 ) ) ;
#141 = CONICAL_SURFACE ( 'NONE', #297, 0.6999999999999999556, 0.7853981633974512766 ) ;
#142 = CARTESIAN_POINT ( 'NONE',  ( 1.888104274722424374E-15, -6.622578304432228391E-17, 0.5407745571248072647 ) ) ;
#143 = FACE_OUTER_BOUND ( 'NONE', #302, .T. ) ;
#144 = EDGE_LOOP ( 'NONE', ( #156, #39, #231, #194 ) ) ;
#145 = DIRECTION ( 'NONE',  ( 0.0000000000000000000, 1.000000000000000000, 0.0000000000000000000 ) ) ;
#146 = DIRECTION ( 'NONE',  ( 4.279844320860545916E-31, 1.000000000000000000, 1.204669080539455507E-16 ) ) ;
#147 = CARTESIAN_POINT ( 'NONE',  ( 3.848248301307245055E-31, 0.8999999999999958034, 1.102182119232612734E-16 ) ) ;
#148 = CARTESIAN_POINT ( 'NONE',  ( 1.888104274722424374E-15, -6.622578304432228391E-17, 0.5407745571248072647 ) ) ;
#149 = AXIS2_PLACEMENT_3D ( 'NONE', #195, #26, #262 ) ;
#150 = AXIS2_PLACEMENT_3D ( 'NONE', #148, #123, #146 ) ;
#151 = CARTESIAN_POINT ( 'NONE',  ( 1.324251144860865032E-13, -0.7000000000000046185, 38.00000000000000000 ) ) ;
#152 = APPROVAL ( #216, 'UNSPECIFIED' ) ;
#153 = APPROVAL_STATUS ( 'not_yet_approved' ) ;
#154 = DIRECTION ( 'NONE',  ( -3.491481338843133355E-15, 1.224646799147353207E-16, -1.000000000000000000 ) ) ;
#155 = ORIENTED_EDGE ( 'NONE', *, *, #165, .F. ) ;
#156 = ORIENTED_EDGE ( 'NONE', *, *, #209, .F. ) ;
#157 = DIRECTION ( 'NONE',  ( 4.275831445896958607E-31, 1.000000000000000000, 1.224646799147353207E-16 ) ) ;
#158 = DIRECTION ( 'NONE',  ( 0.0000000000000000000, 0.0000000000000000000, 1.000000000000000000 ) ) ;
#159 = EDGE_LOOP ( 'NONE', ( #227, #273, #129, #118 ) ) ;
#160 = FACE_OUTER_BOUND ( 'NONE', #139, .T. ) ;
#161 = VECTOR ( 'NONE', #33, 1000.000000000000000 ) ;
#162 = SECURITY_CLASSIFICATION ( '', '', #89 ) ;
#163 = PERSON_AND_ORGANIZATION_ROLE ( 'creator' ) ;
#164 = DIRECTION ( 'NONE',  ( 1.903218546456021928E-15, 0.8571673007021098911, 0.5150380749100583744 ) ) ;
#165 = EDGE_CURVE ( 'NONE', #290, #45, #249, .T. ) ;
#166 = DIRECTION ( 'NONE',  ( -2.382254525458708792E-15, -0.7071067811865495711, -0.7071067811865455743 ) ) ;
#167 = EDGE_CURVE ( 'NONE', #334, #256, #35, .T. ) ;
#168 = DIRECTION ( 'NONE',  ( -3.491481338843133355E-15, 1.224646799147353207E-16, -1.000000000000000000 ) ) ;
#169 = DIRECTION ( 'NONE',  ( 0.0000000000000000000, 1.000000000000000000, 0.0000000000000000000 ) ) ;
#170 = ADVANCED_FACE ( 'NONE', ( #7 ), #126, .T. ) ;
#171 = FACE_OUTER_BOUND ( 'NONE', #159, .T. ) ;
#172 = CYLINDRICAL_SURFACE ( 'NONE', #20, 0.8999999999999982458 ) ;
#173 = SHAPE_DEFINITION_REPRESENTATION ( #116, #294 ) ;
#174 = CC_DESIGN_PERSON_AND_ORGANIZATION_ASSIGNMENT ( #110, #81, ( #298 ) ) ;
#175 = DIRECTION ( 'NONE',  ( 3.491481338843133355E-15, -1.224646799147353207E-16, 1.000000000000000000 ) ) ;
#176 = APPLICATION_PROTOCOL_DEFINITION ( 'international standard', 'config_control_design', 1994, #93 ) ;
#177 = VECTOR ( 'NONE', #166, 1000.000000000000114 ) ;
#178 = AXIS2_PLACEMENT_3D ( 'NONE', #136, #225, #97 ) ;
#179 = LINE ( 'NONE', #184, #119 ) ;
#180 = ADVANCED_FACE ( 'NONE', ( #27 ), #117, .F. ) ;
#181 = CARTESIAN_POINT ( 'NONE',  ( 0.0000000000000000000, 0.0000000000000000000, 0.0000000000000000000 ) ) ;
#182 = CYLINDRICAL_SURFACE ( 'NONE', #337, 0.8999999999999958034 ) ;
#183 = PERSON_AND_ORGANIZATION ( #36, #251 ) ;
#184 = CARTESIAN_POINT ( 'NONE',  ( 1.102182119232609036E-16, -0.8999999999999958034, -1.102182119232616555E-16 ) ) ;
#185 = CC_DESIGN_APPROVAL ( #49, ( #298 ) ) ;
#186 = EDGE_CURVE ( 'NONE', #83, #256, #279, .T. ) ;
#187 = PRODUCT_RELATED_PRODUCT_CATEGORY ( 'detail', '', ( #189 ) ) ;
#188 = ORIENTED_EDGE ( 'NONE', *, *, #293, .F. ) ;
#189 = PRODUCT ( '272', '272', '', ( #66 ) ) ;
#190 = CARTESIAN_POINT ( 'NONE',  ( 1.327620161519793644E-13, -0.7000000000000046185, 38.00000000000000000 ) ) ;
#191 = CIRCLE ( 'NONE', #51, 0.6999999999999999556 ) ;
#192 = FACE_OUTER_BOUND ( 'NONE', #98, .T. ) ;
#193 = EDGE_CURVE ( 'NONE', #11, #201, #329, .T. ) ;
#194 = ORIENTED_EDGE ( 'NONE', *, *, #186, .F. ) ;
#195 = CARTESIAN_POINT ( 'NONE',  ( 1.319779946082704535E-13, -4.629164900776995227E-15, 37.79999999999999716 ) ) ;
#196 = DATE_TIME_ROLE ( 'classification_date' ) ;
#197 = PERSON_AND_ORGANIZATION ( #36, #251 ) ;
#198 = AXIS2_PLACEMENT_3D ( 'NONE', #54, #3, #145 ) ;
#199 = CARTESIAN_POINT ( 'NONE',  ( 1.102182119232611995E-16, -0.8999999999999982458, -1.102182119232619390E-16 ) ) ;
#200 = EDGE_CURVE ( 'NONE', #79, #201, #72, .T. ) ;
#201 = VERTEX_POINT ( 'NONE', #204 ) ;
#202 = CC_DESIGN_PERSON_AND_ORGANIZATION_ASSIGNMENT ( #64, #8, ( #162 ) ) ;
#203 = DATE_AND_TIME ( #326, #94 ) ;
#204 = CARTESIAN_POINT ( 'NONE',  ( 1.319779946082704535E-13, 0.8999999999999953593, 37.79999999999999716 ) ) ;
#205 = EDGE_CURVE ( 'NONE', #11, #45, #277, .T. ) ;
#206 = ORIENTED_EDGE ( 'NONE', *, *, #205, .F. ) ;
#207 = AXIS2_PLACEMENT_3D ( 'NONE', #181, #158, #47 ) ;
#208 = PLANE ( 'NONE',  #258 ) ;
#209 = EDGE_CURVE ( 'NONE', #306, #83, #179, .T. ) ;
#210 = EDGE_LOOP ( 'NONE', ( #247, #102, #155, #240 ) ) ;
#211 = ORIENTED_EDGE ( 'NONE', *, *, #333, .T. ) ;
#212 = COORDINATED_UNIVERSAL_TIME_OFFSET ( 1, 0, .AHEAD. ) ;
#213 = PRODUCT_DEFINITION ( 'UNKNOWN', '', #298, #324 ) ;
#214 = CC_DESIGN_APPROVAL ( #152, ( #162 ) ) ;
#215 = VERTEX_POINT ( 'NONE', #151 ) ;
#216 = APPROVAL_STATUS ( 'not_yet_approved' ) ;
#217 =( NAMED_UNIT ( * ) SI_UNIT ( $, .STERADIAN. ) SOLID_ANGLE_UNIT ( ) );
#218 = FACE_OUTER_BOUND ( 'NONE', #309, .T. ) ;
#219 = EDGE_CURVE ( 'NONE', #334, #306, #114, .T. ) ;
#220 = AXIS2_PLACEMENT_3D ( 'NONE', #142, #113, #313 ) ;
#221 = AXIS2_PLACEMENT_3D ( 'NONE', #40, #73, #107 ) ;
#222 = DIRECTION ( 'NONE',  ( -3.491481338843133355E-15, 1.224646799147353207E-16, -1.000000000000000000 ) ) ;
#223 = EDGE_CURVE ( 'NONE', #30, #256, #274, .T. ) ;
#224 = ORIENTED_EDGE ( 'NONE', *, *, #121, .T. ) ;
#225 = DIRECTION ( 'NONE',  ( -3.491481338843133355E-15, 1.224646799147353207E-16, -1.000000000000000000 ) ) ;
#226 = CARTESIAN_POINT ( 'NONE',  ( 1.326762908760390423E-13, -4.653657836759941941E-15, 38.00000000000000000 ) ) ;
#227 = ORIENTED_EDGE ( 'NONE', *, *, #109, .F. ) ;
#228 = ORIENTED_EDGE ( 'NONE', *, *, #293, .T. ) ;
#229 = CARTESIAN_POINT ( 'NONE',  ( 1.998322486645686165E-15, 0.8999999999999953593, 0.5407745571248073757 ) ) ;
#230 = CARTESIAN_POINT ( 'NONE',  ( 1.326762908760390423E-13, -4.653657836759941941E-15, 38.00000000000000000 ) ) ;
#231 = ORIENTED_EDGE ( 'NONE', *, *, #167, .T. ) ;
#232 = EDGE_LOOP ( 'NONE', ( #206, #265, #106, #188 ) ) ;
#233 = ORIENTED_EDGE ( 'NONE', *, *, #167, .F. ) ;
#234 = COORDINATED_UNIVERSAL_TIME_OFFSET ( 1, 0, .AHEAD. ) ;
#235 = UNCERTAINTY_MEASURE_WITH_UNIT (LENGTH_MEASURE( 1.000000000000000082E-05 ), #242, 'distance_accuracy_value', 'NONE');
#236 = AXIS2_PLACEMENT_3D ( 'NONE', #63, #58, #267 ) ;
#237 = CC_DESIGN_APPROVAL ( #319, ( #213 ) ) ;
#238 = DIRECTION ( 'NONE',  ( 0.0000000000000000000, 1.000000000000000000, 0.0000000000000000000 ) ) ;
#239 = ORIENTED_EDGE ( 'NONE', *, *, #200, .F. ) ;
#240 = ORIENTED_EDGE ( 'NONE', *, *, #41, .F. ) ;
#241 = DIRECTION ( 'NONE',  ( -3.491481338843133355E-15, 1.224646799147353207E-16, -1.000000000000000000 ) ) ;
#242 =( LENGTH_UNIT ( ) NAMED_UNIT ( * ) SI_UNIT ( .MILLI., .METRE. ) );
#243 = LOCAL_TIME ( 9, 21, 44.00000000000000000, #212 ) ;
#244 = DIRECTION ( 'NONE',  ( -3.491481338843133355E-15, 1.224646799147353207E-16, -1.000000000000000000 ) ) ;
#245 = ORIENTED_EDGE ( 'NONE', *, *, #257, .F. ) ;
#246 = DIRECTION ( 'NONE',  ( 4.275831445896958607E-31, 1.000000000000000000, 1.224646799147353207E-16 ) ) ;
#247 = ORIENTED_EDGE ( 'NONE', *, *, #57, .T. ) ;
#248 = PERSON_AND_ORGANIZATION ( #36, #251 ) ;
#249 = CIRCLE ( 'NONE', #236, 0.8999999999999963585 ) ;
#250 = ORIENTED_EDGE ( 'NONE', *, *, #219, .T. ) ;
#251 = ORGANIZATION ( 'UNSPECIFIED', 'UNSPECIFIED', '' ) ;
#252 = CARTESIAN_POINT ( 'NONE',  ( 1.326762908760390423E-13, -4.653657836759941941E-15, 38.00000000000000000 ) ) ;
#253 = COORDINATED_UNIVERSAL_TIME_OFFSET ( 1, 0, .AHEAD. ) ;
#254 =( GEOMETRIC_REPRESENTATION_CONTEXT ( 3 ) GLOBAL_UNCERTAINTY_ASSIGNED_CONTEXT ( ( #235 ) ) GLOBAL_UNIT_ASSIGNED_CONTEXT ( ( #242, #2, #217 ) ) REPRESENTATION_CONTEXT ( 'NONE', 'WORKASPACE' ) );
#255 = APPROVAL_ROLE ( '' ) ;
#256 = VERTEX_POINT ( 'NONE', #229 ) ;
#257 = EDGE_CURVE ( 'NONE', #79, #215, #10, .T. ) ;
#258 = AXIS2_PLACEMENT_3D ( 'NONE', #25, #175, #322 ) ;
#259 = DIRECTION ( 'NONE',  ( 3.491481338843133355E-15, -1.224646799147353207E-16, 1.000000000000000000 ) ) ;
#260 = DIRECTION ( 'NONE',  ( 4.275831445896958607E-31, 1.000000000000000000, 1.224646799147353207E-16 ) ) ;
#261 = FACE_OUTER_BOUND ( 'NONE', #335, .T. ) ;
#262 = DIRECTION ( 'NONE',  ( 0.0000000000000000000, 1.000000000000000000, 0.0000000000000000000 ) ) ;
#263 = DIRECTION ( 'NONE',  ( -3.491481338843133355E-15, 1.224646799147353207E-16, -1.000000000000000000 ) ) ;
#264 = CC_DESIGN_PERSON_AND_ORGANIZATION_ASSIGNMENT ( #248, #163, ( #213 ) ) ;
#265 = ORIENTED_EDGE ( 'NONE', *, *, #193, .T. ) ;
#266 = APPROVAL_DATE_TIME ( #291, #152 ) ;
#267 = DIRECTION ( 'NONE',  ( 0.0000000000000000000, 1.000000000000000000, 0.0000000000000000000 ) ) ;
#268 = EDGE_LOOP ( 'NONE', ( #245, #103 ) ) ;
#269 = CARTESIAN_POINT ( 'NONE',  ( 1.998322486645686165E-15, 0.8999999999999953593, 0.5407745571248073757 ) ) ;
#270 = CARTESIAN_POINT ( 'NONE',  ( 3.142333204958820020E-14, 0.8999999999999953593, 9.000000000000000000 ) ) ;
#271 = CIRCLE ( 'NONE', #288, 0.8999999999999963585 ) ;
#272 = DIRECTION ( 'NONE',  ( -3.491481338843133355E-15, 1.224646799147353207E-16, -1.000000000000000000 ) ) ;
#273 = ORIENTED_EDGE ( 'NONE', *, *, #85, .T. ) ;
#274 = LINE ( 'NONE', #269, #78 ) ;
#275 = COORDINATED_UNIVERSAL_TIME_OFFSET ( 1, 0, .AHEAD. ) ;
#276 = EDGE_LOOP ( 'NONE', ( #250, #74, #19, #233 ) ) ;
#277 = LINE ( 'NONE', #199, #56 ) ;
#278 = ADVANCED_FACE ( 'NONE', ( #303 ), #42, .T. ) ;
#279 = CIRCLE ( 'NONE', #221, 0.8999999999999954703 ) ;
#280 = CARTESIAN_POINT ( 'NONE',  ( 1.319779946082704535E-13, -4.629164900776995227E-15, 37.79999999999999716 ) ) ;
#281 = PERSON_AND_ORGANIZATION ( #36, #251 ) ;
#282 = DIRECTION ( 'NONE',  ( -3.491481338843133355E-15, 1.224646799147353207E-16, -1.000000000000000000 ) ) ;
#283 = ADVANCED_FACE ( 'NONE', ( #12 ), #182, .T. ) ;
#284 = MANIFOLD_SOLID_BREP ( 'Corps-Déplacer/Copier1[1]', #111 ) ;
#285 = ORIENTED_EDGE ( 'NONE', *, *, #219, .F. ) ;
#286 = DIRECTION ( 'NONE',  ( -3.491481338843133355E-15, 1.224646799147353207E-16, -1.000000000000000000 ) ) ;
#287 = CARTESIAN_POINT ( 'NONE',  ( 3.142333204958820020E-14, 6.748919021978315445E-33, 9.000000000000000000 ) ) ;
#288 = AXIS2_PLACEMENT_3D ( 'NONE', #131, #327, #44 ) ;
#289 = DIRECTION ( 'NONE',  ( -4.275831445896958607E-31, -1.000000000000000000, -1.224646799147353207E-16 ) ) ;
#290 = VERTEX_POINT ( 'NONE', #13 ) ;
#291 = DATE_AND_TIME ( #321, #243 ) ;
#292 = CARTESIAN_POINT ( 'NONE',  ( 1.888104274722423980E-15, -0.8999999999999955813, 0.5407745571248071537 ) ) ;
#293 = EDGE_CURVE ( 'NONE', #45, #290, #271, .T. ) ;
#294 = ADVANCED_BREP_SHAPE_REPRESENTATION ( '272', ( #284, #55, #207 ), #254 ) ;
#295 = PERSON_AND_ORGANIZATION ( #36, #251 ) ;
#296 = VECTOR ( 'NONE', #241, 1000.000000000000000 ) ;
#297 = AXIS2_PLACEMENT_3D ( 'NONE', #252, #18, #23 ) ;
#298 = PRODUCT_DEFINITION_FORMATION_WITH_SPECIFIED_SOURCE ( 'ANY', '', #189, .NOT_KNOWN. ) ;
#299 = DIRECTION ( 'NONE',  ( 3.491481338843133355E-15, -1.224646799147353207E-16, 1.000000000000000000 ) ) ;
#300 = APPROVAL_ROLE ( '' ) ;
#301 = ADVANCED_FACE ( 'NONE', ( #160 ), #141, .T. ) ;
#302 = EDGE_LOOP ( 'NONE', ( #305, #224, #135 ) ) ;
#303 = FACE_OUTER_BOUND ( 'NONE', #144, .T. ) ;
#304 = APPROVAL_PERSON_ORGANIZATION ( #295, #152, #300 ) ;
#305 = ORIENTED_EDGE ( 'NONE', *, *, #223, .F. ) ;
#306 = VERTEX_POINT ( 'NONE', #115 ) ;
#307 = DIRECTION ( 'NONE',  ( 4.275831445896958607E-31, 1.000000000000000000, 1.224646799147353207E-16 ) ) ;
#308 = ORIENTED_EDGE ( 'NONE', *, *, #121, .F. ) ;
#309 = EDGE_LOOP ( 'NONE', ( #308, #95, #211 ) ) ;
#310 = DATE_AND_TIME ( #134, #332 ) ;
#311 = LINE ( 'NONE', #80, #15 ) ;
#312 = APPROVAL_PERSON_ORGANIZATION ( #281, #49, #255 ) ;
#313 = DIRECTION ( 'NONE',  ( -4.279844320860545916E-31, -1.000000000000000000, -1.204669080539455507E-16 ) ) ;
#314 = CC_DESIGN_PERSON_AND_ORGANIZATION_ASSIGNMENT ( #22, #330, ( #298 ) ) ;
#315 = CLOSED_SHELL ( 'NONE', ( #283, #133, #105, #278, #28 ) ) ;
#316 = CARTESIAN_POINT ( 'NONE',  ( 1.326762908760390423E-13, 5.249159239316431836E-33, 38.00000000000000000 ) ) ;
#317 = LOCAL_TIME ( 9, 21, 44.00000000000000000, #253 ) ;
#318 = CARTESIAN_POINT ( 'NONE',  ( 0.0000000000000000000, 0.0000000000000000000, 0.0000000000000000000 ) ) ;
#319 = APPROVAL ( #153, 'UNSPECIFIED' ) ;
#320 = DIRECTION ( 'NONE',  ( -4.279844320860545916E-31, -1.000000000000000000, -1.204669080539455507E-16 ) ) ;
#321 = CALENDAR_DATE ( 2021, 3, 9 ) ;
#322 = DIRECTION ( 'NONE',  ( -4.275831445896958607E-31, -1.000000000000000000, -1.224646799147353207E-16 ) ) ;
#323 = DATE_AND_TIME ( #1, #21 ) ;
#324 = DESIGN_CONTEXT ( 'detailed design', #93, 'design' ) ;
#325 = DIRECTION ( 'NONE',  ( -2.468850131082257455E-15, 0.7071067811865497932, -0.7071067811865453523 ) ) ;
#326 = CALENDAR_DATE ( 2021, 3, 9 ) ;
#327 = DIRECTION ( 'NONE',  ( -3.491481338843133355E-15, 1.224646799147353207E-16, -1.000000000000000000 ) ) ;
#328 = ADVANCED_FACE ( 'NONE', ( #261 ), #208, .F. ) ;
#329 = CIRCLE ( 'NONE', #32, 0.9000000000000000222 ) ;
#330 = PERSON_AND_ORGANIZATION_ROLE ( 'design_supplier' ) ;
#331 = AXIS2_PLACEMENT_3D ( 'NONE', #316, #65, #307 ) ;
#332 = LOCAL_TIME ( 9, 21, 44.00000000000000000, #14 ) ;
#333 = EDGE_CURVE ( 'NONE', #256, #83, #101, .T. ) ;
#334 = VERTEX_POINT ( 'NONE', #270 ) ;
#335 = EDGE_LOOP ( 'NONE', ( #87, #228 ) ) ;
#336 = AXIS2_PLACEMENT_3D ( 'NONE', #52, #263, #169 ) ;
#337 = AXIS2_PLACEMENT_3D ( 'NONE', #130, #99, #157 ) ;
ENDSEC;
END-ISO-10303-21;
