ISO-10303-21;
HEADER;
FILE_DESCRIPTION (( 'STEP AP203' ),
    '1' );
FILE_NAME ('271.step',
    '2021-09-03T07:21:43',
    ( '' ),
    ( '' ),
    'SwSTEP 2.0',
    'SolidWorks 2019',
    '' );
FILE_SCHEMA (( 'CONFIG_CONTROL_DESIGN' ));
ENDSEC;

DATA;
#1 = CARTESIAN_POINT ( 'NONE',  ( 3.142333204958820020E-14, 6.561449049145583244E-33, 9.000000000000000000 ) ) ;
#2 = DIRECTION ( 'NONE',  ( -2.382254525458708792E-15, -0.7071067811865495711, -0.7071067811865455743 ) ) ;
#3 = PERSON_AND_ORGANIZATION ( #208, #286 ) ;
#4 = CARTESIAN_POINT ( 'NONE',  ( 1.326762908760390423E-13, -4.653657836759941941E-15, 38.00000000000000000 ) ) ;
#5 = ADVANCED_FACE ( 'NONE', ( #288 ), #79, .T. ) ;
#6 = CYLINDRICAL_SURFACE ( 'NONE', #177, 0.8749999999999960032 ) ;
#7 = AXIS2_PLACEMENT_3D ( 'NONE', #129, #132, #279 ) ;
#8 = ORIENTED_EDGE ( 'NONE', *, *, #180, .T. ) ;
#9 = CARTESIAN_POINT ( 'NONE',  ( 1.319779946082704535E-13, -4.629164900776995227E-15, 37.79999999999999716 ) ) ;
#10 = EDGE_LOOP ( 'NONE', ( #320, #214, #303, #163 ) ) ;
#11 = CARTESIAN_POINT ( 'NONE',  ( 3.142333204958820020E-14, -1.102182119232617714E-15, 9.000000000000000000 ) ) ;
#12 = AXIS2_PLACEMENT_3D ( 'NONE', #183, #156, #259 ) ;
#13 = LOCAL_TIME ( 9, 21, 43.00000000000000000, #265 ) ;
#14 = DIRECTION ( 'NONE',  ( -3.491481338843133355E-15, 1.224646799147353207E-16, -1.000000000000000000 ) ) ;
#15 = CIRCLE ( 'NONE', #188, 0.8749999999999964473 ) ;
#16 = FACE_OUTER_BOUND ( 'NONE', #115, .T. ) ;
#17 = CIRCLE ( 'NONE', #212, 0.8750000000000000000 ) ;
#18 = DIRECTION ( 'NONE',  ( -4.275831445896958607E-31, -1.000000000000000000, -1.224646799147353207E-16 ) ) ;
#19 = DIRECTION ( 'NONE',  ( -3.491481338843133355E-15, 1.224646799147353207E-16, -1.000000000000000000 ) ) ;
#20 = ORIENTED_EDGE ( 'NONE', *, *, #193, .F. ) ;
#21 = ORIENTED_EDGE ( 'NONE', *, *, #124, .F. ) ;
#22 = APPROVAL_PERSON_ORGANIZATION ( #47, #335, #42 ) ;
#23 = ORIENTED_EDGE ( 'NONE', *, *, #68, .T. ) ;
#24 = PERSON_AND_ORGANIZATION ( #208, #286 ) ;
#25 = DIRECTION ( 'NONE',  ( -3.491481338843133355E-15, 1.224646799147353207E-16, -1.000000000000000000 ) ) ;
#26 = ADVANCED_FACE ( 'NONE', ( #16 ), #52, .T. ) ;
#27 = CARTESIAN_POINT ( 'NONE',  ( 8.180781992385467275E-14, -0.8749999999999975575, 9.000000000000000000 ) ) ;
#28 = CYLINDRICAL_SURFACE ( 'NONE', #108, 0.8749999999999982236 ) ;
#29 = ORIENTED_EDGE ( 'NONE', *, *, #122, .T. ) ;
#30 = CARTESIAN_POINT ( 'NONE',  ( 1.326762908760390423E-13, -4.653657836759941941E-15, 38.00000000000000000 ) ) ;
#31 = ORIENTED_EDGE ( 'NONE', *, *, #239, .F. ) ;
#32 = EDGE_CURVE ( 'NONE', #66, #140, #229, .T. ) ;
#33 = LINE ( 'NONE', #143, #171 ) ;
#34 = PLANE ( 'NONE',  #226 ) ;
#35 = AXIS2_PLACEMENT_3D ( 'NONE', #319, #209, #57 ) ;
#36 = EDGE_CURVE ( 'NONE', #160, #134, #76, .T. ) ;
#37 = CARTESIAN_POINT ( 'NONE',  ( 0.0000000000000000000, 0.0000000000000000000, 0.0000000000000000000 ) ) ;
#38 = VECTOR ( 'NONE', #290, 1000.000000000000000 ) ;
#39 = ADVANCED_FACE ( 'NONE', ( #309 ), #194, .T. ) ;
#40 = DIRECTION ( 'NONE',  ( 3.491481338843133355E-15, -1.224646799147353207E-16, 1.000000000000000000 ) ) ;
#41 = CARTESIAN_POINT ( 'NONE',  ( 3.741352515159821921E-31, 0.8749999999999960032, 1.071565949253929095E-16 ) ) ;
#42 = APPROVAL_ROLE ( '' ) ;
#43 = VECTOR ( 'NONE', #150, 1000.000000000000000 ) ;
#44 = ADVANCED_FACE ( 'NONE', ( #179 ), #252, .T. ) ;
#45 = FACE_OUTER_BOUND ( 'NONE', #325, .T. ) ;
#46 = MANIFOLD_SOLID_BREP ( 'Corps-Déplacer/Copier1[2]', #71 ) ;
#47 = PERSON_AND_ORGANIZATION ( #208, #286 ) ;
#48 = CARTESIAN_POINT ( 'NONE',  ( 1.835656933757912959E-15, -6.438617795975778185E-17, 0.5257530416491182912 ) ) ;
#49 = MANIFOLD_SOLID_BREP ( 'Corps-Déplacer/Copier1[1]', #137 ) ;
#50 = EDGE_LOOP ( 'NONE', ( #323, #289, #106, #133 ) ) ;
#51 = APPROVAL_ROLE ( '' ) ;
#52 = CONICAL_SURFACE ( 'NONE', #7, 0.6750000000000000444, 0.7853981633974512766 ) ;
#53 = CARTESIAN_POINT ( 'NONE',  ( 1.942813528683306213E-15, 0.8749999999999953371, 0.5257530416491184022 ) ) ;
#54 = APPROVAL_PERSON_ORGANIZATION ( #296, #131, #85 ) ;
#55 = ORIENTED_EDGE ( 'NONE', *, *, #172, .T. ) ;
#56 = ADVANCED_FACE ( 'NONE', ( #225 ), #100, .F. ) ;
#57 = DIRECTION ( 'NONE',  ( 0.0000000000000000000, 1.000000000000000000, 0.0000000000000000000 ) ) ;
#58 = DIRECTION ( 'NONE',  ( -3.491481338843133355E-15, 1.224646799147353207E-16, -1.000000000000000000 ) ) ;
#59 = ORIENTED_EDGE ( 'NONE', *, *, #104, .T. ) ;
#60 = DATE_AND_TIME ( #211, #13 ) ;
#61 = DIRECTION ( 'NONE',  ( -3.491481338843133355E-15, 1.224646799147353207E-16, -1.000000000000000000 ) ) ;
#62 = ORIENTED_EDGE ( 'NONE', *, *, #267, .F. ) ;
#63 = CIRCLE ( 'NONE', #245, 0.8749999999999954481 ) ;
#64 = COORDINATED_UNIVERSAL_TIME_OFFSET ( 1, 0, .AHEAD. ) ;
#65 = DIRECTION ( 'NONE',  ( -3.491481338843133355E-15, 1.224646799147353207E-16, -1.000000000000000000 ) ) ;
#66 = VERTEX_POINT ( 'NONE', #98 ) ;
#67 = FACE_OUTER_BOUND ( 'NONE', #219, .T. ) ;
#68 = EDGE_CURVE ( 'NONE', #140, #256, #246, .T. ) ;
#69 = DIRECTION ( 'NONE',  ( -3.491481338843133355E-15, 1.224646799147353207E-16, -1.000000000000000000 ) ) ;
#70 = CYLINDRICAL_SURFACE ( 'NONE', #102, 0.8749999999999960032 ) ;
#71 = CLOSED_SHELL ( 'NONE', ( #333, #44, #274, #168, #5 ) ) ;
#72 = DIRECTION ( 'NONE',  ( 0.0000000000000000000, 1.000000000000000000, 0.0000000000000000000 ) ) ;
#73 = CARTESIAN_POINT ( 'NONE',  ( 0.0000000000000000000, 0.0000000000000000000, 0.0000000000000000000 ) ) ;
#74 = EDGE_CURVE ( 'NONE', #162, #165, #176, .T. ) ;
#75 = DATE_AND_TIME ( #130, #223 ) ;
#76 = LINE ( 'NONE', #41, #38 ) ;
#77 = SECURITY_CLASSIFICATION ( '', '', #261 ) ;
#78 = CALENDAR_DATE ( 2021, 3, 9 ) ;
#79 = PLANE ( 'NONE',  #285 ) ;
#80 = DIRECTION ( 'NONE',  ( 1.000000000000000000, 0.0000000000000000000, 0.0000000000000000000 ) ) ;
#81 = FACE_OUTER_BOUND ( 'NONE', #90, .T. ) ;
#82 = CIRCLE ( 'NONE', #126, 0.6750000000000000444 ) ;
#83 = LINE ( 'NONE', #297, #330 ) ;
#84 = VERTEX_POINT ( 'NONE', #228 ) ;
#85 = APPROVAL_ROLE ( '' ) ;
#86 = DIRECTION ( 'NONE',  ( 3.491481338843133355E-15, -1.224646799147353207E-16, 1.000000000000000000 ) ) ;
#87 = ORIENTED_EDGE ( 'NONE', *, *, #318, .T. ) ;
#88 = DATE_TIME_ROLE ( 'classification_date' ) ;
#89 = CARTESIAN_POINT ( 'NONE',  ( 1.835656933757912959E-15, -6.438617795975778185E-17, 0.5257530416491182912 ) ) ;
#90 = EDGE_LOOP ( 'NONE', ( #186, #29, #20, #187 ) ) ;
#91 = AXIS2_PLACEMENT_3D ( 'NONE', #282, #69, #336 ) ;
#92 = CC_DESIGN_APPROVAL ( #131, ( #185 ) ) ;
#93 = DIRECTION ( 'NONE',  ( -4.275831445896958607E-31, -1.000000000000000000, -1.224646799147353207E-16 ) ) ;
#94 = DIRECTION ( 'NONE',  ( -3.491481338843133355E-15, 1.224646799147353207E-16, -1.000000000000000000 ) ) ;
#95 = AXIS2_PLACEMENT_3D ( 'NONE', #158, #25, #103 ) ;
#96 = CC_DESIGN_DATE_AND_TIME_ASSIGNMENT ( #182, #292, ( #147 ) ) ;
#97 = VECTOR ( 'NONE', #276, 1000.000000000000114 ) ;
#98 = CARTESIAN_POINT ( 'NONE',  ( 8.180781992385450866E-14, -0.8750000000000046629, 37.79999999999999716 ) ) ;
#99 = DIRECTION ( 'NONE',  ( 4.275831445896958607E-31, 1.000000000000000000, 1.224646799147353207E-16 ) ) ;
#100 = PLANE ( 'NONE',  #12 ) ;
#101 = AXIS2_PLACEMENT_3D ( 'NONE', #48, #40, #154 ) ;
#102 = AXIS2_PLACEMENT_3D ( 'NONE', #73, #120, #151 ) ;
#103 = DIRECTION ( 'NONE',  ( 0.0000000000000000000, 1.000000000000000000, 0.0000000000000000000 ) ) ;
#104 = EDGE_CURVE ( 'NONE', #256, #140, #198, .T. ) ;
#105 = DIRECTION ( 'NONE',  ( -3.491481338843133355E-15, 1.224646799147353207E-16, -1.000000000000000000 ) ) ;
#106 = ORIENTED_EDGE ( 'NONE', *, *, #210, .F. ) ;
#107 = COORDINATED_UNIVERSAL_TIME_OFFSET ( 1, 0, .AHEAD. ) ;
#108 = AXIS2_PLACEMENT_3D ( 'NONE', #169, #61, #114 ) ;
#109 = CARTESIAN_POINT ( 'NONE',  ( 0.0000000000000000000, 0.0000000000000000000, 0.0000000000000000000 ) ) ;
#110 = ORIENTED_EDGE ( 'NONE', *, *, #190, .F. ) ;
#111 = ADVANCED_FACE ( 'NONE', ( #81 ), #314, .T. ) ;
#112 = CARTESIAN_POINT ( 'NONE',  ( 1.071565949253925521E-16, -0.8749999999999960032, -1.071565949253932916E-16 ) ) ;
#113 = VERTEX_POINT ( 'NONE', #264 ) ;
#114 = DIRECTION ( 'NONE',  ( 4.275831445896958607E-31, 1.000000000000000000, 1.224646799147353207E-16 ) ) ;
#115 = EDGE_LOOP ( 'NONE', ( #263, #242, #55, #191 ) ) ;
#116 = PERSON_AND_ORGANIZATION_ROLE ( 'classification_officer' ) ;
#117 = FACE_OUTER_BOUND ( 'NONE', #10, .T. ) ;
#118 = CARTESIAN_POINT ( 'NONE',  ( 3.741352515159831117E-31, 0.8749999999999982236, 1.071565949253931807E-16 ) ) ;
#119 = CARTESIAN_POINT ( 'NONE',  ( 1.324220528690886543E-13, -0.6750000000000047073, 38.00000000000000000 ) ) ;
#120 = DIRECTION ( 'NONE',  ( -3.491481338843133355E-15, 1.224646799147353207E-16, -1.000000000000000000 ) ) ;
#121 = CC_DESIGN_APPROVAL ( #244, ( #77 ) ) ;
#122 = EDGE_CURVE ( 'NONE', #207, #66, #83, .T. ) ;
#123 = ORIENTED_EDGE ( 'NONE', *, *, #74, .F. ) ;
#124 = EDGE_CURVE ( 'NONE', #113, #160, #304, .T. ) ;
#125 = ADVANCED_BREP_SHAPE_REPRESENTATION ( '271', ( #49, #46, #281 ), #149 ) ;
#126 = AXIS2_PLACEMENT_3D ( 'NONE', #30, #141, #272 ) ;
#127 = PERSON_AND_ORGANIZATION ( #208, #286 ) ;
#128 = DIRECTION ( 'NONE',  ( 1.798245827342160317E-15, -0.8571673007021098911, 0.5150380749100582634 ) ) ;
#129 = CARTESIAN_POINT ( 'NONE',  ( 1.326762908760390423E-13, -4.653657836759941941E-15, 38.00000000000000000 ) ) ;
#130 = CALENDAR_DATE ( 2021, 3, 9 ) ;
#131 = APPROVAL ( #184, 'UNSPECIFIED' ) ;
#132 = DIRECTION ( 'NONE',  ( -3.491481338843133355E-15, 1.224646799147353207E-16, -1.000000000000000000 ) ) ;
#133 = ORIENTED_EDGE ( 'NONE', *, *, #36, .F. ) ;
#134 = VERTEX_POINT ( 'NONE', #53 ) ;
#135 = APPROVAL_STATUS ( 'not_yet_approved' ) ;
#136 = CARTESIAN_POINT ( 'NONE',  ( 3.142333204958820020E-14, 0.8749999999999953371, 9.000000000000000000 ) ) ;
#137 = CLOSED_SHELL ( 'NONE', ( #111, #251, #203, #39, #26, #56 ) ) ;
#138 = APPROVAL_PERSON_ORGANIZATION ( #243, #244, #51 ) ;
#139 = CARTESIAN_POINT ( 'NONE',  ( 1.835656933757912959E-15, -6.438617795975778185E-17, 0.5257530416491182912 ) ) ;
#140 = VERTEX_POINT ( 'NONE', #27 ) ;
#141 = DIRECTION ( 'NONE',  ( -3.491481338843133355E-15, 1.224646799147353207E-16, -1.000000000000000000 ) ) ;
#142 = ORIENTED_EDGE ( 'NONE', *, *, #124, .T. ) ;
#143 = CARTESIAN_POINT ( 'NONE',  ( 1.942813528683306213E-15, 0.8749999999999953371, 0.5257530416491184022 ) ) ;
#144 = APPLICATION_CONTEXT ( 'configuration controlled 3d designs of mechanical parts and assemblies' ) ;
#145 = DIRECTION ( 'NONE',  ( -3.491481338843133355E-15, 1.224646799147353207E-16, -1.000000000000000000 ) ) ;
#146 = DIRECTION ( 'NONE',  ( 0.0000000000000000000, 1.000000000000000000, 0.0000000000000000000 ) ) ;
#147 = PRODUCT_DEFINITION ( 'UNKNOWN', '', #185, #234 ) ;
#148 = VECTOR ( 'NONE', #65, 1000.000000000000000 ) ;
#149 =( GEOMETRIC_REPRESENTATION_CONTEXT ( 3 ) GLOBAL_UNCERTAINTY_ASSIGNED_CONTEXT ( ( #300 ) ) GLOBAL_UNIT_ASSIGNED_CONTEXT ( ( #331, #206, #334 ) ) REPRESENTATION_CONTEXT ( 'NONE', 'WORKASPACE' ) );
#150 = DIRECTION ( 'NONE',  ( -3.491481338843133355E-15, 1.224646799147353207E-16, -1.000000000000000000 ) ) ;
#151 = DIRECTION ( 'NONE',  ( 4.275831445896958607E-31, 1.000000000000000000, 1.224646799147353207E-16 ) ) ;
#152 = DIRECTION ( 'NONE',  ( 0.0000000000000000000, 1.000000000000000000, 0.0000000000000000000 ) ) ;
#153 = PERSON_AND_ORGANIZATION ( #208, #286 ) ;
#154 = DIRECTION ( 'NONE',  ( -4.402125587170847703E-31, -1.000000000000000000, -1.239088197126297226E-16 ) ) ;
#155 = CC_DESIGN_PERSON_AND_ORGANIZATION_ASSIGNMENT ( #127, #202, ( #293 ) ) ;
#156 = DIRECTION ( 'NONE',  ( -3.491481338843133355E-15, 1.224646799147353207E-16, -1.000000000000000000 ) ) ;
#157 = CALENDAR_DATE ( 2021, 3, 9 ) ;
#158 = CARTESIAN_POINT ( 'NONE',  ( 3.142333204958820020E-14, -1.102182119232617714E-15, 9.000000000000000000 ) ) ;
#159 = VECTOR ( 'NONE', #145, 1000.000000000000000 ) ;
#160 = VERTEX_POINT ( 'NONE', #136 ) ;
#161 = DATE_AND_TIME ( #157, #213 ) ;
#162 = VERTEX_POINT ( 'NONE', #109 ) ;
#163 = ORIENTED_EDGE ( 'NONE', *, *, #180, .F. ) ;
#164 = CIRCLE ( 'NONE', #295, 0.8750000000000000000 ) ;
#165 = VERTEX_POINT ( 'NONE', #236 ) ;
#166 = DIRECTION ( 'NONE',  ( 0.0000000000000000000, 1.000000000000000000, 0.0000000000000000000 ) ) ;
#167 = EDGE_LOOP ( 'NONE', ( #123, #87, #216 ) ) ;
#168 = ADVANCED_FACE ( 'NONE', ( #45 ), #6, .T. ) ;
#169 = CARTESIAN_POINT ( 'NONE',  ( 0.0000000000000000000, 0.0000000000000000000, 0.0000000000000000000 ) ) ;
#170 = CARTESIAN_POINT ( 'NONE',  ( 1.326762908760390423E-13, 0.6749999999999953815, 38.00000000000000000 ) ) ;
#171 = VECTOR ( 'NONE', #221, 999.9999999999998863 ) ;
#172 = EDGE_CURVE ( 'NONE', #270, #84, #315, .T. ) ;
#173 = DIRECTION ( 'NONE',  ( 0.0000000000000000000, 1.000000000000000000, 0.0000000000000000000 ) ) ;
#174 = CC_DESIGN_DATE_AND_TIME_ASSIGNMENT ( #324, #88, ( #77 ) ) ;
#175 = CIRCLE ( 'NONE', #310, 0.8749999999999954481 ) ;
#176 = LINE ( 'NONE', #250, #326 ) ;
#177 = AXIS2_PLACEMENT_3D ( 'NONE', #254, #19, #99 ) ;
#178 = DIRECTION ( 'NONE',  ( -3.491481338843133355E-15, 1.224646799147353207E-16, -1.000000000000000000 ) ) ;
#179 = FACE_OUTER_BOUND ( 'NONE', #167, .T. ) ;
#180 = EDGE_CURVE ( 'NONE', #84, #256, #302, .T. ) ;
#181 = ORIENTED_EDGE ( 'NONE', *, *, #32, .F. ) ;
#182 = DATE_AND_TIME ( #78, #227 ) ;
#183 = CARTESIAN_POINT ( 'NONE',  ( 1.326762908760390423E-13, 5.061689266483700319E-33, 38.00000000000000000 ) ) ;
#184 = APPROVAL_STATUS ( 'not_yet_approved' ) ;
#185 = PRODUCT_DEFINITION_FORMATION_WITH_SPECIFIED_SOURCE ( 'ANY', '', #293, .NOT_KNOWN. ) ;
#186 = ORIENTED_EDGE ( 'NONE', *, *, #291, .T. ) ;
#187 = ORIENTED_EDGE ( 'NONE', *, *, #172, .F. ) ;
#188 = AXIS2_PLACEMENT_3D ( 'NONE', #11, #322, #166 ) ;
#189 = DIRECTION ( 'NONE',  ( 4.402125587170847703E-31, 1.000000000000000000, 1.239088197126297226E-16 ) ) ;
#190 = EDGE_CURVE ( 'NONE', #165, #134, #63, .T. ) ;
#191 = ORIENTED_EDGE ( 'NONE', *, *, #329, .F. ) ;
#192 = DIRECTION ( 'NONE',  ( -3.491481338843133355E-15, 1.224646799147353207E-16, -1.000000000000000000 ) ) ;
#193 = EDGE_CURVE ( 'NONE', #84, #66, #164, .T. ) ;
#194 = CYLINDRICAL_SURFACE ( 'NONE', #91, 0.8749999999999982236 ) ;
#195 = AXIS2_PLACEMENT_3D ( 'NONE', #199, #311, #72 ) ;
#196 = MECHANICAL_CONTEXT ( 'NONE', #277, 'mechanical' ) ;
#197 = CC_DESIGN_PERSON_AND_ORGANIZATION_ASSIGNMENT ( #240, #116, ( #77 ) ) ;
#198 = CIRCLE ( 'NONE', #95, 0.8749999999999964473 ) ;
#199 = CARTESIAN_POINT ( 'NONE',  ( 3.142333204958820020E-14, -1.102182119232617714E-15, 9.000000000000000000 ) ) ;
#200 = PRODUCT_RELATED_PRODUCT_CATEGORY ( 'detail', '', ( #293 ) ) ;
#201 = ORIENTED_EDGE ( 'NONE', *, *, #329, .T. ) ;
#202 = PERSON_AND_ORGANIZATION_ROLE ( 'design_owner' ) ;
#203 = ADVANCED_FACE ( 'NONE', ( #67 ), #34, .F. ) ;
#204 = CIRCLE ( 'NONE', #249, 0.6750000000000000444 ) ;
#205 = APPLICATION_PROTOCOL_DEFINITION ( 'international standard', 'config_control_design', 1994, #144 ) ;
#206 =( NAMED_UNIT ( * ) PLANE_ANGLE_UNIT ( ) SI_UNIT ( $, .RADIAN. ) );
#207 = VERTEX_POINT ( 'NONE', #119 ) ;
#208 = PERSON ( 'UNSPECIFIED', 'UNSPECIFIED', 'UNSPECIFIED', ('UNSPECIFIED'), ('UNSPECIFIED'), ('UNSPECIFIED') ) ;
#209 = DIRECTION ( 'NONE',  ( -3.491481338843133355E-15, 1.224646799147353207E-16, -1.000000000000000000 ) ) ;
#210 = EDGE_CURVE ( 'NONE', #134, #165, #175, .T. ) ;
#211 = CALENDAR_DATE ( 2021, 3, 9 ) ;
#212 = AXIS2_PLACEMENT_3D ( 'NONE', #230, #178, #173 ) ;
#213 = LOCAL_TIME ( 9, 21, 43.00000000000000000, #64 ) ;
#214 = ORIENTED_EDGE ( 'NONE', *, *, #32, .T. ) ;
#215 = FACE_OUTER_BOUND ( 'NONE', #321, .T. ) ;
#216 = ORIENTED_EDGE ( 'NONE', *, *, #210, .T. ) ;
#217 = PERSON_AND_ORGANIZATION_ROLE ( 'creator' ) ;
#218 = CARTESIAN_POINT ( 'NONE',  ( 1.835656933757912959E-15, -6.438617795975778185E-17, 0.5257530416491182912 ) ) ;
#219 = EDGE_LOOP ( 'NONE', ( #59, #23 ) ) ;
#220 = APPROVAL_DATE_TIME ( #60, #131 ) ;
#221 = DIRECTION ( 'NONE',  ( 1.903218546456022717E-15, 0.8571673007021097801, 0.5150380749100585964 ) ) ;
#222 = CARTESIAN_POINT ( 'NONE',  ( 1.326762908760390423E-13, -4.653657836759941941E-15, 38.00000000000000000 ) ) ;
#223 = LOCAL_TIME ( 9, 21, 43.00000000000000000, #313 ) ;
#224 = EDGE_CURVE ( 'NONE', #160, #113, #15, .T. ) ;
#225 = FACE_OUTER_BOUND ( 'NONE', #257, .T. ) ;
#226 = AXIS2_PLACEMENT_3D ( 'NONE', #327, #241, #93 ) ;
#227 = LOCAL_TIME ( 9, 21, 43.00000000000000000, #316 ) ;
#228 = CARTESIAN_POINT ( 'NONE',  ( 1.319779946082704535E-13, 0.8749999999999953371, 37.79999999999999716 ) ) ;
#229 = LINE ( 'NONE', #231, #43 ) ;
#230 = CARTESIAN_POINT ( 'NONE',  ( 1.319779946082704535E-13, -4.629164900776995227E-15, 37.79999999999999716 ) ) ;
#231 = CARTESIAN_POINT ( 'NONE',  ( 1.071565949253928232E-16, -0.8749999999999982236, -1.071565949253935505E-16 ) ) ;
#232 = EDGE_LOOP ( 'NONE', ( #284, #21 ) ) ;
#233 = PERSON_AND_ORGANIZATION_ROLE ( 'design_supplier' ) ;
#234 = DESIGN_CONTEXT ( 'detailed design', #144, 'design' ) ;
#235 = CALENDAR_DATE ( 2021, 3, 9 ) ;
#236 = CARTESIAN_POINT ( 'NONE',  ( 1.835656933757912564E-15, -0.8749999999999955591, 0.5257530416491181802 ) ) ;
#237 = LINE ( 'NONE', #112, #159 ) ;
#238 = ORIENTED_EDGE ( 'NONE', *, *, #291, .F. ) ;
#239 = EDGE_CURVE ( 'NONE', #207, #270, #204, .T. ) ;
#240 = PERSON_AND_ORGANIZATION ( #208, #286 ) ;
#241 = DIRECTION ( 'NONE',  ( 3.491481338843133355E-15, -1.224646799147353207E-16, 1.000000000000000000 ) ) ;
#242 = ORIENTED_EDGE ( 'NONE', *, *, #239, .T. ) ;
#243 = PERSON_AND_ORGANIZATION ( #208, #286 ) ;
#244 = APPROVAL ( #135, 'UNSPECIFIED' ) ;
#245 = AXIS2_PLACEMENT_3D ( 'NONE', #89, #94, #308 ) ;
#246 = CIRCLE ( 'NONE', #195, 0.8749999999999964473 ) ;
#247 = LOCAL_TIME ( 9, 21, 43.00000000000000000, #107 ) ;
#248 = CARTESIAN_POINT ( 'NONE',  ( 1.326762908760390423E-13, 0.6749999999999953815, 38.00000000000000000 ) ) ;
#249 = AXIS2_PLACEMENT_3D ( 'NONE', #222, #14, #266 ) ;
#250 = CARTESIAN_POINT ( 'NONE',  ( 1.835656933757912564E-15, -0.8749999999999955591, 0.5257530416491181802 ) ) ;
#251 = ADVANCED_FACE ( 'NONE', ( #117 ), #28, .T. ) ;
#252 = CONICAL_SURFACE ( 'NONE', #101, 0.8749999999999954481, 1.029744258676649649 ) ;
#253 = DIRECTION ( 'NONE',  ( 3.491481338843133355E-15, -1.224646799147353207E-16, 1.000000000000000000 ) ) ;
#254 = CARTESIAN_POINT ( 'NONE',  ( 0.0000000000000000000, 0.0000000000000000000, 0.0000000000000000000 ) ) ;
#255 = PERSON_AND_ORGANIZATION_ROLE ( 'creator' ) ;
#256 = VERTEX_POINT ( 'NONE', #273 ) ;
#257 = EDGE_LOOP ( 'NONE', ( #238, #31 ) ) ;
#258 = DIRECTION ( 'NONE',  ( 0.0000000000000000000, 0.0000000000000000000, 1.000000000000000000 ) ) ;
#259 = DIRECTION ( 'NONE',  ( 4.275831445896958607E-31, 1.000000000000000000, 1.224646799147353207E-16 ) ) ;
#260 = AXIS2_PLACEMENT_3D ( 'NONE', #4, #105, #152 ) ;
#261 = SECURITY_CLASSIFICATION_LEVEL ( 'unclassified' ) ;
#262 = CC_DESIGN_PERSON_AND_ORGANIZATION_ASSIGNMENT ( #3, #233, ( #185 ) ) ;
#263 = ORIENTED_EDGE ( 'NONE', *, *, #122, .F. ) ;
#264 = CARTESIAN_POINT ( 'NONE',  ( 1.673665108659843346E-14, -0.8749999999999974465, 9.000000000000000000 ) ) ;
#265 = COORDINATED_UNIVERSAL_TIME_OFFSET ( 1, 0, .AHEAD. ) ;
#266 = DIRECTION ( 'NONE',  ( 0.0000000000000000000, 1.000000000000000000, 0.0000000000000000000 ) ) ;
#267 = EDGE_CURVE ( 'NONE', #113, #165, #237, .T. ) ;
#268 = ORIENTED_EDGE ( 'NONE', *, *, #74, .T. ) ;
#269 = DIRECTION ( 'NONE',  ( -4.402125587170847703E-31, -1.000000000000000000, -1.239088197126297226E-16 ) ) ;
#270 = VERTEX_POINT ( 'NONE', #248 ) ;
#271 = SHAPE_DEFINITION_REPRESENTATION ( #306, #125 ) ;
#272 = DIRECTION ( 'NONE',  ( 0.0000000000000000000, 1.000000000000000000, 0.0000000000000000000 ) ) ;
#273 = CARTESIAN_POINT ( 'NONE',  ( 3.142333204958820020E-14, 0.8749999999999953371, 9.000000000000000000 ) ) ;
#274 = ADVANCED_FACE ( 'NONE', ( #215 ), #332, .T. ) ;
#275 = AXIS2_PLACEMENT_3D ( 'NONE', #218, #86, #269 ) ;
#276 = DIRECTION ( 'NONE',  ( -2.468850131082257455E-15, 0.7071067811865497932, -0.7071067811865453523 ) ) ;
#277 = APPLICATION_CONTEXT ( 'configuration controlled 3d designs of mechanical parts and assemblies' ) ;
#278 = APPLICATION_PROTOCOL_DEFINITION ( 'international standard', 'config_control_design', 1994, #277 ) ;
#279 = DIRECTION ( 'NONE',  ( 0.0000000000000000000, 1.000000000000000000, 0.0000000000000000000 ) ) ;
#280 = CC_DESIGN_PERSON_AND_ORGANIZATION_ASSIGNMENT ( #153, #255, ( #147 ) ) ;
#281 = AXIS2_PLACEMENT_3D ( 'NONE', #37, #258, #80 ) ;
#282 = CARTESIAN_POINT ( 'NONE',  ( 0.0000000000000000000, 0.0000000000000000000, 0.0000000000000000000 ) ) ;
#283 = APPROVAL_STATUS ( 'not_yet_approved' ) ;
#284 = ORIENTED_EDGE ( 'NONE', *, *, #224, .F. ) ;
#285 = AXIS2_PLACEMENT_3D ( 'NONE', #1, #253, #18 ) ;
#286 = ORGANIZATION ( 'UNSPECIFIED', 'UNSPECIFIED', '' ) ;
#287 = APPROVAL_DATE_TIME ( #75, #335 ) ;
#288 = FACE_OUTER_BOUND ( 'NONE', #232, .T. ) ;
#289 = ORIENTED_EDGE ( 'NONE', *, *, #267, .T. ) ;
#290 = DIRECTION ( 'NONE',  ( -3.491481338843133355E-15, 1.224646799147353207E-16, -1.000000000000000000 ) ) ;
#291 = EDGE_CURVE ( 'NONE', #270, #207, #82, .T. ) ;
#292 = DATE_TIME_ROLE ( 'creation_date' ) ;
#293 = PRODUCT ( '271', '271', '', ( #196 ) ) ;
#294 = ORIENTED_EDGE ( 'NONE', *, *, #318, .F. ) ;
#295 = AXIS2_PLACEMENT_3D ( 'NONE', #9, #192, #146 ) ;
#296 = PERSON_AND_ORGANIZATION ( #208, #286 ) ;
#297 = CARTESIAN_POINT ( 'NONE',  ( 1.327589545349815156E-13, -0.6750000000000047073, 38.00000000000000000 ) ) ;
#298 = ORIENTED_EDGE ( 'NONE', *, *, #68, .F. ) ;
#299 = EDGE_LOOP ( 'NONE', ( #181, #201, #8, #298 ) ) ;
#300 = UNCERTAINTY_MEASURE_WITH_UNIT (LENGTH_MEASURE( 1.000000000000000082E-05 ), #331, 'distance_accuracy_value', 'NONE');
#301 = APPROVAL_DATE_TIME ( #161, #244 ) ;
#302 = LINE ( 'NONE', #118, #148 ) ;
#303 = ORIENTED_EDGE ( 'NONE', *, *, #104, .F. ) ;
#304 = CIRCLE ( 'NONE', #35, 0.8749999999999964473 ) ;
#305 = CC_DESIGN_APPROVAL ( #335, ( #147 ) ) ;
#306 = PRODUCT_DEFINITION_SHAPE ( 'NONE', 'NONE',  #147 ) ;
#307 = ORIENTED_EDGE ( 'NONE', *, *, #190, .T. ) ;
#308 = DIRECTION ( 'NONE',  ( 4.402125587170847703E-31, 1.000000000000000000, 1.239088197126297226E-16 ) ) ;
#309 = FACE_OUTER_BOUND ( 'NONE', #299, .T. ) ;
#310 = AXIS2_PLACEMENT_3D ( 'NONE', #139, #58, #189 ) ;
#311 = DIRECTION ( 'NONE',  ( -3.491481338843133355E-15, 1.224646799147353207E-16, -1.000000000000000000 ) ) ;
#312 = FACE_OUTER_BOUND ( 'NONE', #50, .T. ) ;
#313 = COORDINATED_UNIVERSAL_TIME_OFFSET ( 1, 0, .AHEAD. ) ;
#314 = CONICAL_SURFACE ( 'NONE', #260, 0.6750000000000000444, 0.7853981633974512766 ) ;
#315 = LINE ( 'NONE', #170, #97 ) ;
#316 = COORDINATED_UNIVERSAL_TIME_OFFSET ( 1, 0, .AHEAD. ) ;
#317 = ORIENTED_EDGE ( 'NONE', *, *, #36, .T. ) ;
#318 = EDGE_CURVE ( 'NONE', #162, #134, #33, .T. ) ;
#319 = CARTESIAN_POINT ( 'NONE',  ( 3.142333204958820020E-14, -1.102182119232617714E-15, 9.000000000000000000 ) ) ;
#320 = ORIENTED_EDGE ( 'NONE', *, *, #193, .T. ) ;
#321 = EDGE_LOOP ( 'NONE', ( #294, #268, #307 ) ) ;
#322 = DIRECTION ( 'NONE',  ( -3.491481338843133355E-15, 1.224646799147353207E-16, -1.000000000000000000 ) ) ;
#323 = ORIENTED_EDGE ( 'NONE', *, *, #224, .T. ) ;
#324 = DATE_AND_TIME ( #235, #247 ) ;
#325 = EDGE_LOOP ( 'NONE', ( #62, #142, #317, #110 ) ) ;
#326 = VECTOR ( 'NONE', #128, 1000.000000000000000 ) ;
#327 = CARTESIAN_POINT ( 'NONE',  ( 3.142333204958820020E-14, 6.561449049145583244E-33, 9.000000000000000000 ) ) ;
#328 = CC_DESIGN_PERSON_AND_ORGANIZATION_ASSIGNMENT ( #24, #217, ( #185 ) ) ;
#329 = EDGE_CURVE ( 'NONE', #66, #84, #17, .T. ) ;
#330 = VECTOR ( 'NONE', #2, 1000.000000000000114 ) ;
#331 =( LENGTH_UNIT ( ) NAMED_UNIT ( * ) SI_UNIT ( .MILLI., .METRE. ) );
#332 = CONICAL_SURFACE ( 'NONE', #275, 0.8749999999999954481, 1.029744258676649649 ) ;
#333 = ADVANCED_FACE ( 'NONE', ( #312 ), #70, .T. ) ;
#334 =( NAMED_UNIT ( * ) SI_UNIT ( $, .STERADIAN. ) SOLID_ANGLE_UNIT ( ) );
#335 = APPROVAL ( #283, 'UNSPECIFIED' ) ;
#336 = DIRECTION ( 'NONE',  ( 4.275831445896958607E-31, 1.000000000000000000, 1.224646799147353207E-16 ) ) ;
#337 = CC_DESIGN_SECURITY_CLASSIFICATION ( #77, ( #185 ) ) ;
ENDSEC;
END-ISO-10303-21;
