ISO-10303-21;
HEADER;
FILE_DESCRIPTION (( 'STEP AP203' ),
    '1' );
FILE_NAME ('27097.step',
    '2021-11-12T10:08:54',
    ( '' ),
    ( '' ),
    'SwSTEP 2.0',
    'SolidWorks 2019',
    '' );
FILE_SCHEMA (( 'CONFIG_CONTROL_DESIGN' ));
ENDSEC;

DATA;
#1 = EDGE_LOOP ( 'NONE', ( #27 ) ) ;
#2 = APPLICATION_CONTEXT ( 'configuration controlled 3d designs of mechanical parts and assemblies' ) ;
#3 = PERSON_AND_ORGANIZATION ( #75, #110 ) ;
#4 = ORIENTED_EDGE ( 'NONE', *, *, #177, .T. ) ;
#5 = DATE_TIME_ROLE ( 'classification_date' ) ;
#6 = DATE_AND_TIME ( #194, #85 ) ;
#7 = ADVANCED_FACE ( 'NONE', ( #201, #16 ), #187, .T. ) ;
#8 = CARTESIAN_POINT ( 'NONE',  ( 6.982962677686265448E-14, -2.449293598294706119E-15, 19.99999999999999645 ) ) ;
#9 = DIRECTION ( 'NONE',  ( 0.0000000000000000000, 0.0000000000000000000, 1.000000000000000000 ) ) ;
#10 = DIRECTION ( 'NONE',  ( -3.491481338843133355E-15, 1.224646799147353207E-16, -1.000000000000000000 ) ) ;
#11 = LOCAL_TIME ( 11, 8, 54.00000000000000000, #126 ) ;
#12 = ADVANCED_FACE ( 'NONE', ( #144, #188 ), #167, .T. ) ;
#13 = CARTESIAN_POINT ( 'NONE',  ( -7.482705030319677124E-31, 2.624579619658250266E-32, -2.143131898507868051E-16 ) ) ;
#14 = DIRECTION ( 'NONE',  ( -4.275831445896958607E-31, -1.000000000000000000, -1.224646799147353207E-16 ) ) ;
#15 = PRODUCT_DEFINITION_SHAPE ( 'NONE', 'NONE',  #150 ) ;
#16 = FACE_OUTER_BOUND ( 'NONE', #42, .T. ) ;
#17 = CIRCLE ( 'NONE', #115, 3.500000000000000000 ) ;
#18 = LOCAL_TIME ( 11, 8, 54.00000000000000000, #51 ) ;
#19 = COORDINATED_UNIVERSAL_TIME_OFFSET ( 1, 0, .AHEAD. ) ;
#20 = CARTESIAN_POINT ( 'NONE',  ( 2.077431396611664409E-13, 3.499999999999996003, 59.50000000000000711 ) ) ;
#21 = CIRCLE ( 'NONE', #104, 3.499999999999999556 ) ;
#22 = VERTEX_POINT ( 'NONE', #20 ) ;
#23 = DIRECTION ( 'NONE',  ( 4.275831445896958607E-31, 1.000000000000000000, 1.224646799147353207E-16 ) ) ;
#24 = APPROVAL_DATE_TIME ( #162, #89 ) ;
#25 = DIRECTION ( 'NONE',  ( 0.0000000000000000000, 1.000000000000000000, 0.0000000000000000000 ) ) ;
#26 = APPROVAL_PERSON_ORGANIZATION ( #130, #89, #199 ) ;
#27 = ORIENTED_EDGE ( 'NONE', *, *, #177, .F. ) ;
#28 = CARTESIAN_POINT ( 'NONE',  ( 2.094888803305880013E-13, -7.347880794884118356E-15, 60.00000000000000000 ) ) ;
#29 = DIRECTION ( 'NONE',  ( 0.0000000000000000000, 1.000000000000000000, 0.0000000000000000000 ) ) ;
#30 = PERSON_AND_ORGANIZATION_ROLE ( 'creator' ) ;
#31 = SECURITY_CLASSIFICATION ( '', '', #46 ) ;
#32 = EDGE_LOOP ( 'NONE', ( #61 ) ) ;
#33 = DATE_AND_TIME ( #94, #91 ) ;
#34 = CARTESIAN_POINT ( 'NONE',  ( 6.982962677686265448E-14, 3.499999999999997335, 19.99999999999999645 ) ) ;
#35 = AXIS2_PLACEMENT_3D ( 'NONE', #8, #134, #25 ) ;
#36 = APPLICATION_PROTOCOL_DEFINITION ( 'international standard', 'config_control_design', 1994, #2 ) ;
#37 = CARTESIAN_POINT ( 'NONE',  ( 6.982962677686265448E-14, 2.624579619658248077E-32, 19.99999999999999645 ) ) ;
#38 =( NAMED_UNIT ( * ) SI_UNIT ( $, .STERADIAN. ) SOLID_ANGLE_UNIT ( ) );
#39 = FACE_OUTER_BOUND ( 'NONE', #69, .T. ) ;
#40 = DIRECTION ( 'NONE',  ( 0.0000000000000000000, 1.000000000000000000, 0.0000000000000000000 ) ) ;
#41 = AXIS2_PLACEMENT_3D ( 'NONE', #159, #9, #128 ) ;
#42 = EDGE_LOOP ( 'NONE', ( #120 ) ) ;
#43 = DIRECTION ( 'NONE',  ( 4.275831445896958607E-31, 1.000000000000000000, 1.224646799147353207E-16 ) ) ;
#44 = CIRCLE ( 'NONE', #151, 3.000000000000010214 ) ;
#45 = CC_DESIGN_DATE_AND_TIME_ASSIGNMENT ( #33, #108, ( #150 ) ) ;
#46 = SECURITY_CLASSIFICATION_LEVEL ( 'unclassified' ) ;
#47 = ORIENTED_EDGE ( 'NONE', *, *, #190, .F. ) ;
#48 = CLOSED_SHELL ( 'NONE', ( #87, #7, #119 ) ) ;
#49 = CC_DESIGN_DATE_AND_TIME_ASSIGNMENT ( #154, #5, ( #31 ) ) ;
#50 = DIRECTION ( 'NONE',  ( 4.275831445896958607E-31, 1.000000000000000000, 1.224646799147353207E-16 ) ) ;
#51 = COORDINATED_UNIVERSAL_TIME_OFFSET ( 1, 0, .AHEAD. ) ;
#52 = DIRECTION ( 'NONE',  ( -3.491481338843133355E-15, 1.224646799147353207E-16, -1.000000000000000000 ) ) ;
#53 = DIRECTION ( 'NONE',  ( -3.491481338843133355E-15, 1.224646799147353207E-16, -1.000000000000000000 ) ) ;
#54 = DIRECTION ( 'NONE',  ( -4.275831445896958607E-31, -1.000000000000000000, -1.224646799147353207E-16 ) ) ;
#55 = EDGE_CURVE ( 'NONE', #98, #98, #157, .T. ) ;
#56 = EDGE_LOOP ( 'NONE', ( #135 ) ) ;
#57 = CC_DESIGN_PERSON_AND_ORGANIZATION_ASSIGNMENT ( #3, #109, ( #186 ) ) ;
#58 = CIRCLE ( 'NONE', #165, 3.500000000000003553 ) ;
#59 = APPROVAL_DATE_TIME ( #107, #72 ) ;
#60 = AXIS2_PLACEMENT_3D ( 'NONE', #198, #79, #50 ) ;
#61 = ORIENTED_EDGE ( 'NONE', *, *, #73, .F. ) ;
#62 = APPROVAL_STATUS ( 'not_yet_approved' ) ;
#63 = FACE_OUTER_BOUND ( 'NONE', #56, .T. ) ;
#64 = DIRECTION ( 'NONE',  ( 0.0000000000000000000, 1.000000000000000000, 0.0000000000000000000 ) ) ;
#65 = AXIS2_PLACEMENT_3D ( 'NONE', #129, #106, #43 ) ;
#66 = PLANE ( 'NONE',  #127 ) ;
#67 = ORIENTED_EDGE ( 'NONE', *, *, #55, .T. ) ;
#68 = APPLICATION_CONTEXT ( 'configuration controlled 3d designs of mechanical parts and assemblies' ) ;
#69 = EDGE_LOOP ( 'NONE', ( #47 ) ) ;
#70 = AXIS2_PLACEMENT_3D ( 'NONE', #166, #133, #54 ) ;
#71 =( GEOMETRIC_REPRESENTATION_CONTEXT ( 3 ) GLOBAL_UNCERTAINTY_ASSIGNED_CONTEXT ( ( #102 ) ) GLOBAL_UNIT_ASSIGNED_CONTEXT ( ( #76, #142, #38 ) ) REPRESENTATION_CONTEXT ( 'NONE', 'WORKASPACE' ) );
#72 = APPROVAL ( #173, 'UNSPECIFIED' ) ;
#73 = EDGE_CURVE ( 'NONE', #96, #96, #17, .T. ) ;
#74 = VERTEX_POINT ( 'NONE', #141 ) ;
#75 = PERSON ( 'UNSPECIFIED', 'UNSPECIFIED', 'UNSPECIFIED', ('UNSPECIFIED'), ('UNSPECIFIED'), ('UNSPECIFIED') ) ;
#76 =( LENGTH_UNIT ( ) NAMED_UNIT ( * ) SI_UNIT ( .MILLI., .METRE. ) );
#77 = PLANE ( 'NONE',  #60 ) ;
#78 = PERSON_AND_ORGANIZATION ( #75, #110 ) ;
#79 = DIRECTION ( 'NONE',  ( -3.491481338843133355E-15, 1.224646799147353207E-16, -1.000000000000000000 ) ) ;
#80 = APPROVAL_PERSON_ORGANIZATION ( #138, #72, #191 ) ;
#81 = CARTESIAN_POINT ( 'NONE',  ( 6.982962677686265448E-14, -2.449293598294706119E-15, 19.99999999999999645 ) ) ;
#82 = FACE_OUTER_BOUND ( 'NONE', #125, .T. ) ;
#83 = PRODUCT ( '27097', '27097', '', ( #99 ) ) ;
#84 = AXIS2_PLACEMENT_3D ( 'NONE', #37, #148, #14 ) ;
#85 = LOCAL_TIME ( 11, 8, 54.00000000000000000, #19 ) ;
#86 = CALENDAR_DATE ( 2021, 12, 11 ) ;
#87 = ADVANCED_FACE ( 'NONE', ( #63 ), #66, .T. ) ;
#88 = COORDINATED_UNIVERSAL_TIME_OFFSET ( 1, 0, .AHEAD. ) ;
#89 = APPROVAL ( #196, 'UNSPECIFIED' ) ;
#90 = MANIFOLD_SOLID_BREP ( 'Corps-Déplacer/Copier1[2]', #48 ) ;
#91 = LOCAL_TIME ( 11, 8, 54.00000000000000000, #112 ) ;
#92 = APPROVAL_ROLE ( '' ) ;
#93 = CALENDAR_DATE ( 2021, 12, 11 ) ;
#94 = CALENDAR_DATE ( 2021, 12, 11 ) ;
#95 = EDGE_LOOP ( 'NONE', ( #4 ) ) ;
#96 = VERTEX_POINT ( 'NONE', #155 ) ;
#97 = ADVANCED_FACE ( 'NONE', ( #39 ), #77, .F. ) ;
#98 = VERTEX_POINT ( 'NONE', #34 ) ;
#99 = MECHANICAL_CONTEXT ( 'NONE', #68, 'mechanical' ) ;
#100 = DIRECTION ( 'NONE',  ( -3.491481338843133355E-15, 1.224646799147353207E-16, -1.000000000000000000 ) ) ;
#101 = APPROVAL ( #62, 'UNSPECIFIED' ) ;
#102 = UNCERTAINTY_MEASURE_WITH_UNIT (LENGTH_MEASURE( 1.000000000000000082E-05 ), #76, 'distance_accuracy_value', 'NONE');
#103 = DIRECTION ( 'NONE',  ( -3.491481338843133355E-15, 1.224646799147353207E-16, -1.000000000000000000 ) ) ;
#104 = AXIS2_PLACEMENT_3D ( 'NONE', #149, #52, #132 ) ;
#105 = EDGE_LOOP ( 'NONE', ( #180 ) ) ;
#106 = DIRECTION ( 'NONE',  ( -3.491481338843133355E-15, 1.224646799147353207E-16, -1.000000000000000000 ) ) ;
#107 = DATE_AND_TIME ( #93, #11 ) ;
#108 = DATE_TIME_ROLE ( 'creation_date' ) ;
#109 = PERSON_AND_ORGANIZATION_ROLE ( 'design_supplier' ) ;
#110 = ORGANIZATION ( 'UNSPECIFIED', 'UNSPECIFIED', '' ) ;
#111 = PERSON_AND_ORGANIZATION ( #75, #110 ) ;
#112 = COORDINATED_UNIVERSAL_TIME_OFFSET ( 1, 0, .AHEAD. ) ;
#113 = ADVANCED_FACE ( 'NONE', ( #202 ), #116, .F. ) ;
#114 = PERSON_AND_ORGANIZATION ( #75, #110 ) ;
#115 = AXIS2_PLACEMENT_3D ( 'NONE', #81, #100, #29 ) ;
#116 = PLANE ( 'NONE',  #70 ) ;
#117 = CALENDAR_DATE ( 2021, 12, 11 ) ;
#118 = CARTESIAN_POINT ( 'NONE',  ( 2.077431396611664409E-13, -7.286648454926752359E-15, 59.50000000000000711 ) ) ;
#119 = ADVANCED_FACE ( 'NONE', ( #82 ), #182, .T. ) ;
#120 = ORIENTED_EDGE ( 'NONE', *, *, #171, .F. ) ;
#121 = DIRECTION ( 'NONE',  ( 4.275831445896958607E-31, 1.000000000000000000, 1.224646799147353207E-16 ) ) ;
#122 = CC_DESIGN_APPROVAL ( #72, ( #186 ) ) ;
#123 = PRODUCT_RELATED_PRODUCT_CATEGORY ( 'detail', '', ( #83 ) ) ;
#124 = APPROVAL_DATE_TIME ( #6, #101 ) ;
#125 = EDGE_LOOP ( 'NONE', ( #156 ) ) ;
#126 = COORDINATED_UNIVERSAL_TIME_OFFSET ( 1, 0, .AHEAD. ) ;
#127 = AXIS2_PLACEMENT_3D ( 'NONE', #13, #163, #23 ) ;
#128 = DIRECTION ( 'NONE',  ( 1.000000000000000000, 0.0000000000000000000, 0.0000000000000000000 ) ) ;
#129 = CARTESIAN_POINT ( 'NONE',  ( 0.0000000000000000000, 0.0000000000000000000, 0.0000000000000000000 ) ) ;
#130 = PERSON_AND_ORGANIZATION ( #75, #110 ) ;
#131 = CC_DESIGN_PERSON_AND_ORGANIZATION_ASSIGNMENT ( #114, #181, ( #83 ) ) ;
#132 = DIRECTION ( 'NONE',  ( 4.275831445896958607E-31, 1.000000000000000000, 1.224646799147353207E-16 ) ) ;
#133 = DIRECTION ( 'NONE',  ( 3.491481338843133355E-15, -1.224646799147353207E-16, 1.000000000000000000 ) ) ;
#134 = DIRECTION ( 'NONE',  ( -3.491481338843133355E-15, 1.224646799147353207E-16, -1.000000000000000000 ) ) ;
#135 = ORIENTED_EDGE ( 'NONE', *, *, #171, .T. ) ;
#136 = CC_DESIGN_PERSON_AND_ORGANIZATION_ASSIGNMENT ( #111, #175, ( #31 ) ) ;
#137 = CC_DESIGN_SECURITY_CLASSIFICATION ( #31, ( #186 ) ) ;
#138 = PERSON_AND_ORGANIZATION ( #75, #110 ) ;
#139 = PERSON_AND_ORGANIZATION ( #75, #110 ) ;
#140 = AXIS2_PLACEMENT_3D ( 'NONE', #147, #53, #121 ) ;
#141 = CARTESIAN_POINT ( 'NONE',  ( 2.094888803305880013E-13, 3.000000000000002665, 60.00000000000000000 ) ) ;
#142 =( NAMED_UNIT ( * ) PLANE_ANGLE_UNIT ( ) SI_UNIT ( $, .RADIAN. ) );
#143 = ORIENTED_EDGE ( 'NONE', *, *, #190, .T. ) ;
#144 = FACE_OUTER_BOUND ( 'NONE', #95, .T. ) ;
#145 = PERSON_AND_ORGANIZATION_ROLE ( 'creator' ) ;
#146 = CC_DESIGN_APPROVAL ( #101, ( #31 ) ) ;
#147 = CARTESIAN_POINT ( 'NONE',  ( 0.0000000000000000000, 0.0000000000000000000, 0.0000000000000000000 ) ) ;
#148 = DIRECTION ( 'NONE',  ( 3.491481338843133355E-15, -1.224646799147353207E-16, 1.000000000000000000 ) ) ;
#149 = CARTESIAN_POINT ( 'NONE',  ( -1.496541006063935425E-30, 5.249159239316500533E-32, -4.286263797015736102E-16 ) ) ;
#150 = PRODUCT_DEFINITION ( 'UNKNOWN', '', #186, #161 ) ;
#151 = AXIS2_PLACEMENT_3D ( 'NONE', #200, #103, #189 ) ;
#152 = CLOSED_SHELL ( 'NONE', ( #113, #12, #153, #97 ) ) ;
#153 = ADVANCED_FACE ( 'NONE', ( #160, #185 ), #178, .T. ) ;
#154 = DATE_AND_TIME ( #86, #195 ) ;
#155 = CARTESIAN_POINT ( 'NONE',  ( 6.982962677686265448E-14, 3.499999999999997335, 19.99999999999999645 ) ) ;
#156 = ORIENTED_EDGE ( 'NONE', *, *, #55, .F. ) ;
#157 = CIRCLE ( 'NONE', #35, 3.500000000000000000 ) ;
#158 = VERTEX_POINT ( 'NONE', #179 ) ;
#159 = CARTESIAN_POINT ( 'NONE',  ( 0.0000000000000000000, 0.0000000000000000000, 0.0000000000000000000 ) ) ;
#160 = FACE_OUTER_BOUND ( 'NONE', #1, .T. ) ;
#161 = DESIGN_CONTEXT ( 'detailed design', #2, 'design' ) ;
#162 = DATE_AND_TIME ( #117, #18 ) ;
#163 = DIRECTION ( 'NONE',  ( -3.491481338843133355E-15, 1.224646799147353207E-16, -1.000000000000000000 ) ) ;
#164 = MANIFOLD_SOLID_BREP ( 'Corps-Déplacer/Copier1[1]', #152 ) ;
#165 = AXIS2_PLACEMENT_3D ( 'NONE', #118, #184, #40 ) ;
#166 = CARTESIAN_POINT ( 'NONE',  ( 6.982962677686265448E-14, 2.624579619658248077E-32, 19.99999999999999645 ) ) ;
#167 = CYLINDRICAL_SURFACE ( 'NONE', #65, 3.500000000000001776 ) ;
#168 = EDGE_LOOP ( 'NONE', ( #67 ) ) ;
#169 = ADVANCED_BREP_SHAPE_REPRESENTATION ( '27097', ( #164, #90, #41 ), #71 ) ;
#170 = CC_DESIGN_APPROVAL ( #89, ( #150 ) ) ;
#171 = EDGE_CURVE ( 'NONE', #158, #158, #21, .T. ) ;
#172 = AXIS2_PLACEMENT_3D ( 'NONE', #28, #10, #64 ) ;
#173 = APPROVAL_STATUS ( 'not_yet_approved' ) ;
#174 = CC_DESIGN_PERSON_AND_ORGANIZATION_ASSIGNMENT ( #139, #30, ( #186 ) ) ;
#175 = PERSON_AND_ORGANIZATION_ROLE ( 'classification_officer' ) ;
#176 = SHAPE_DEFINITION_REPRESENTATION ( #15, #169 ) ;
#177 = EDGE_CURVE ( 'NONE', #22, #22, #58, .T. ) ;
#178 = CONICAL_SURFACE ( 'NONE', #172, 3.000000000000010214, 0.7853981633974482790 ) ;
#179 = CARTESIAN_POINT ( 'NONE',  ( 0.0000000000000000000, 3.499999999999999556, 0.0000000000000000000 ) ) ;
#180 = ORIENTED_EDGE ( 'NONE', *, *, #73, .T. ) ;
#181 = PERSON_AND_ORGANIZATION_ROLE ( 'design_owner' ) ;
#182 = PLANE ( 'NONE',  #84 ) ;
#183 = APPLICATION_PROTOCOL_DEFINITION ( 'international standard', 'config_control_design', 1994, #68 ) ;
#184 = DIRECTION ( 'NONE',  ( -3.491481338843133355E-15, 1.224646799147353207E-16, -1.000000000000000000 ) ) ;
#185 = FACE_BOUND ( 'NONE', #193, .T. ) ;
#186 = PRODUCT_DEFINITION_FORMATION_WITH_SPECIFIED_SOURCE ( 'ANY', '', #83, .NOT_KNOWN. ) ;
#187 = CYLINDRICAL_SURFACE ( 'NONE', #140, 3.499999999999999556 ) ;
#188 = FACE_OUTER_BOUND ( 'NONE', #32, .T. ) ;
#189 = DIRECTION ( 'NONE',  ( 0.0000000000000000000, 1.000000000000000000, 0.0000000000000000000 ) ) ;
#190 = EDGE_CURVE ( 'NONE', #74, #74, #44, .T. ) ;
#191 = APPROVAL_ROLE ( '' ) ;
#192 = PERSON_AND_ORGANIZATION ( #75, #110 ) ;
#193 = EDGE_LOOP ( 'NONE', ( #143 ) ) ;
#194 = CALENDAR_DATE ( 2021, 12, 11 ) ;
#195 = LOCAL_TIME ( 11, 8, 54.00000000000000000, #88 ) ;
#196 = APPROVAL_STATUS ( 'not_yet_approved' ) ;
#197 = CC_DESIGN_PERSON_AND_ORGANIZATION_ASSIGNMENT ( #78, #145, ( #150 ) ) ;
#198 = CARTESIAN_POINT ( 'NONE',  ( 2.094888803305880013E-13, 2.249639673992782854E-32, 60.00000000000000000 ) ) ;
#199 = APPROVAL_ROLE ( '' ) ;
#200 = CARTESIAN_POINT ( 'NONE',  ( 2.094888803305880013E-13, -7.347880794884118356E-15, 60.00000000000000000 ) ) ;
#201 = FACE_OUTER_BOUND ( 'NONE', #168, .T. ) ;
#202 = FACE_OUTER_BOUND ( 'NONE', #105, .T. ) ;
#203 = APPROVAL_PERSON_ORGANIZATION ( #192, #101, #92 ) ;
ENDSEC;
END-ISO-10303-21;
