ISO-10303-21;
HEADER;
FILE_DESCRIPTION (( 'STEP AP203' ),
    '1' );
FILE_NAME ('27072.step',
    '2021-11-12T10:08:54',
    ( '' ),
    ( '' ),
    'SwSTEP 2.0',
    'SolidWorks 2019',
    '' );
FILE_SCHEMA (( 'CONFIG_CONTROL_DESIGN' ));
ENDSEC;

DATA;
#1 = MECHANICAL_CONTEXT ( 'NONE', #137, 'mechanical' ) ;
#2 = EDGE_CURVE ( 'NONE', #40, #40, #113, .T. ) ;
#3 = DIRECTION ( 'NONE',  ( -3.491481338843133355E-15, 1.224646799147353207E-16, -1.000000000000000000 ) ) ;
#4 = FACE_OUTER_BOUND ( 'NONE', #198, .T. ) ;
#5 = ORIENTED_EDGE ( 'NONE', *, *, #107, .T. ) ;
#6 = VERTEX_POINT ( 'NONE', #174 ) ;
#7 = DIRECTION ( 'NONE',  ( -4.275831445896958607E-31, -1.000000000000000000, -1.224646799147353207E-16 ) ) ;
#8 = FACE_OUTER_BOUND ( 'NONE', #175, .T. ) ;
#9 = APPROVAL_PERSON_ORGANIZATION ( #47, #202, #135 ) ;
#10 = FACE_OUTER_BOUND ( 'NONE', #146, .T. ) ;
#11 = APPROVAL_DATE_TIME ( #200, #64 ) ;
#12 = APPROVAL_STATUS ( 'not_yet_approved' ) ;
#13 = AXIS2_PLACEMENT_3D ( 'NONE', #164, #150, #148 ) ;
#14 = DATE_TIME_ROLE ( 'creation_date' ) ;
#15 = PERSON ( 'UNSPECIFIED', 'UNSPECIFIED', 'UNSPECIFIED', ('UNSPECIFIED'), ('UNSPECIFIED'), ('UNSPECIFIED') ) ;
#16 = CC_DESIGN_PERSON_AND_ORGANIZATION_ASSIGNMENT ( #121, #49, ( #25 ) ) ;
#17 = DESIGN_CONTEXT ( 'detailed design', #43, 'design' ) ;
#18 = ORGANIZATION ( 'UNSPECIFIED', 'UNSPECIFIED', '' ) ;
#19 = PLANE ( 'NONE',  #65 ) ;
#20 = EDGE_CURVE ( 'NONE', #163, #163, #138, .T. ) ;
#21 = DIRECTION ( 'NONE',  ( -3.491481338843133355E-15, 1.224646799147353207E-16, -1.000000000000000000 ) ) ;
#22 = AXIS2_PLACEMENT_3D ( 'NONE', #127, #114, #177 ) ;
#23 = ORIENTED_EDGE ( 'NONE', *, *, #2, .T. ) ;
#24 = CARTESIAN_POINT ( 'NONE',  ( 1.047444401652940007E-13, -3.673940397442059178E-15, 30.00000000000000000 ) ) ;
#25 = PRODUCT_DEFINITION_FORMATION_WITH_SPECIFIED_SOURCE ( 'ANY', '', #179, .NOT_KNOWN. ) ;
#26 = CC_DESIGN_PERSON_AND_ORGANIZATION_ASSIGNMENT ( #79, #186, ( #36 ) ) ;
#27 = PLANE ( 'NONE',  #189 ) ;
#28 = ORIENTED_EDGE ( 'NONE', *, *, #173, .T. ) ;
#29 = CARTESIAN_POINT ( 'NONE',  ( -1.710332578358783092E-30, 5.999039130647430431E-32, -4.898587196589412829E-16 ) ) ;
#30 = PERSON_AND_ORGANIZATION ( #15, #18 ) ;
#31 = ORIENTED_EDGE ( 'NONE', *, *, #2, .F. ) ;
#32 = CALENDAR_DATE ( 2021, 12, 11 ) ;
#33 = ADVANCED_FACE ( 'NONE', ( #180, #57 ), #191, .T. ) ;
#34 = COORDINATED_UNIVERSAL_TIME_OFFSET ( 1, 0, .AHEAD. ) ;
#35 = LOCAL_TIME ( 11, 8, 54.00000000000000000, #63 ) ;
#36 = PRODUCT_DEFINITION ( 'UNKNOWN', '', #25, #17 ) ;
#37 = MANIFOLD_SOLID_BREP ( 'Corps-Déplacer/Copier1[2]', #171 ) ;
#38 = CIRCLE ( 'NONE', #152, 8.000000000000000000 ) ;
#39 = CARTESIAN_POINT ( 'NONE',  ( 1.047444401652940007E-13, -3.673940397442059178E-15, 30.00000000000000000 ) ) ;
#40 = VERTEX_POINT ( 'NONE', #85 ) ;
#41 = LOCAL_TIME ( 11, 8, 54.00000000000000000, #153 ) ;
#42 = CYLINDRICAL_SURFACE ( 'NONE', #124, 7.999999999999998224 ) ;
#43 = APPLICATION_CONTEXT ( 'configuration controlled 3d designs of mechanical parts and assemblies' ) ;
#44 = MANIFOLD_SOLID_BREP ( 'Corps-Déplacer/Copier1[1]', #72 ) ;
#45 = EDGE_LOOP ( 'NONE', ( #28 ) ) ;
#46 = PLANE ( 'NONE',  #95 ) ;
#47 = PERSON_AND_ORGANIZATION ( #15, #18 ) ;
#48 = ADVANCED_FACE ( 'NONE', ( #184 ), #46, .T. ) ;
#49 = PERSON_AND_ORGANIZATION_ROLE ( 'design_supplier' ) ;
#50 = APPROVAL_PERSON_ORGANIZATION ( #104, #60, #89 ) ;
#51 = CIRCLE ( 'NONE', #157, 8.000000000000000000 ) ;
#52 = LOCAL_TIME ( 11, 8, 54.00000000000000000, #149 ) ;
#53 = EDGE_CURVE ( 'NONE', #55, #55, #108, .T. ) ;
#54 = AXIS2_PLACEMENT_3D ( 'NONE', #194, #97, #88 ) ;
#55 = VERTEX_POINT ( 'NONE', #74 ) ;
#56 = FACE_OUTER_BOUND ( 'NONE', #111, .T. ) ;
#57 = FACE_BOUND ( 'NONE', #59, .T. ) ;
#58 = CARTESIAN_POINT ( 'NONE',  ( 3.212162831735682182E-13, -1.126675055215564941E-14, 92.00000000000000000 ) ) ;
#59 = EDGE_LOOP ( 'NONE', ( #23 ) ) ;
#60 = APPROVAL ( #170, 'UNSPECIFIED' ) ;
#61 = DIRECTION ( 'NONE',  ( 3.491481338843133355E-15, -1.224646799147353207E-16, 1.000000000000000000 ) ) ;
#62 = PERSON_AND_ORGANIZATION_ROLE ( 'creator' ) ;
#63 = COORDINATED_UNIVERSAL_TIME_OFFSET ( 1, 0, .AHEAD. ) ;
#64 = APPROVAL ( #176, 'UNSPECIFIED' ) ;
#65 = AXIS2_PLACEMENT_3D ( 'NONE', #29, #3, #100 ) ;
#66 = CC_DESIGN_DATE_AND_TIME_ASSIGNMENT ( #91, #14, ( #36 ) ) ;
#67 = PERSON_AND_ORGANIZATION ( #15, #18 ) ;
#68 = DIRECTION ( 'NONE',  ( -3.491481338843133355E-15, 1.224646799147353207E-16, -1.000000000000000000 ) ) ;
#69 = VERTEX_POINT ( 'NONE', #197 ) ;
#70 = ORIENTED_EDGE ( 'NONE', *, *, #53, .T. ) ;
#71 = DIRECTION ( 'NONE',  ( 0.0000000000000000000, 1.000000000000000000, 0.0000000000000000000 ) ) ;
#72 = CLOSED_SHELL ( 'NONE', ( #140, #129, #33, #94 ) ) ;
#73 = CARTESIAN_POINT ( 'NONE',  ( 3.194705425041467083E-13, -1.120551821219828183E-14, 91.50000000000000000 ) ) ;
#74 = CARTESIAN_POINT ( 'NONE',  ( 3.194705425041467083E-13, 7.999999999999986677, 91.50000000000000000 ) ) ;
#75 = CC_DESIGN_PERSON_AND_ORGANIZATION_ASSIGNMENT ( #67, #126, ( #179 ) ) ;
#76 = DIRECTION ( 'NONE',  ( 0.0000000000000000000, 1.000000000000000000, 0.0000000000000000000 ) ) ;
#77 = DATE_AND_TIME ( #106, #52 ) ;
#78 = SHAPE_DEFINITION_REPRESENTATION ( #162, #167 ) ;
#79 = PERSON_AND_ORGANIZATION ( #15, #18 ) ;
#80 = PERSON_AND_ORGANIZATION_ROLE ( 'classification_officer' ) ;
#81 = LOCAL_TIME ( 11, 8, 54.00000000000000000, #133 ) ;
#82 = AXIS2_PLACEMENT_3D ( 'NONE', #156, #181, #141 ) ;
#83 = APPLICATION_PROTOCOL_DEFINITION ( 'international standard', 'config_control_design', 1994, #137 ) ;
#84 = ORIENTED_EDGE ( 'NONE', *, *, #53, .F. ) ;
#85 = CARTESIAN_POINT ( 'NONE',  ( 3.212162831735682182E-13, 7.499999999999992895, 92.00000000000000000 ) ) ;
#86 = ORIENTED_EDGE ( 'NONE', *, *, #20, .F. ) ;
#87 = DIRECTION ( 'NONE',  ( -4.275831445896958607E-31, -1.000000000000000000, -1.224646799147353207E-16 ) ) ;
#88 = DIRECTION ( 'NONE',  ( 4.275831445896958607E-31, 1.000000000000000000, 1.224646799147353207E-16 ) ) ;
#89 = APPROVAL_ROLE ( '' ) ;
#90 = EDGE_LOOP ( 'NONE', ( #70 ) ) ;
#91 = DATE_AND_TIME ( #165, #35 ) ;
#92 = PERSON_AND_ORGANIZATION ( #15, #18 ) ;
#93 = ADVANCED_FACE ( 'NONE', ( #101, #166 ), #158, .T. ) ;
#94 = ADVANCED_FACE ( 'NONE', ( #10 ), #125, .F. ) ;
#95 = AXIS2_PLACEMENT_3D ( 'NONE', #130, #61, #7 ) ;
#96 = SECURITY_CLASSIFICATION ( '', '', #120 ) ;
#97 = DIRECTION ( 'NONE',  ( -3.491481338843133355E-15, 1.224646799147353207E-16, -1.000000000000000000 ) ) ;
#98 = CARTESIAN_POINT ( 'NONE',  ( 0.0000000000000000000, 0.0000000000000000000, 0.0000000000000000000 ) ) ;
#99 = ORIENTED_EDGE ( 'NONE', *, *, #107, .F. ) ;
#100 = DIRECTION ( 'NONE',  ( 4.275831445896958607E-31, 1.000000000000000000, 1.224646799147353207E-16 ) ) ;
#101 = FACE_OUTER_BOUND ( 'NONE', #45, .T. ) ;
#102 = APPROVAL_ROLE ( '' ) ;
#103 = DIRECTION ( 'NONE',  ( -3.491481338843133355E-15, 1.224646799147353207E-16, -1.000000000000000000 ) ) ;
#104 = PERSON_AND_ORGANIZATION ( #15, #18 ) ;
#105 = CC_DESIGN_SECURITY_CLASSIFICATION ( #96, ( #25 ) ) ;
#106 = CALENDAR_DATE ( 2021, 12, 11 ) ;
#107 = EDGE_CURVE ( 'NONE', #69, #69, #51, .T. ) ;
#108 = CIRCLE ( 'NONE', #122, 7.999999999999996447 ) ;
#109 = AXIS2_PLACEMENT_3D ( 'NONE', #131, #196, #160 ) ;
#110 = DIRECTION ( 'NONE',  ( 4.275831445896958607E-31, 1.000000000000000000, 1.224646799147353207E-16 ) ) ;
#111 = EDGE_LOOP ( 'NONE', ( #5 ) ) ;
#112 = APPLICATION_PROTOCOL_DEFINITION ( 'international standard', 'config_control_design', 1994, #43 ) ;
#113 = CIRCLE ( 'NONE', #109, 7.500000000000004441 ) ;
#114 = DIRECTION ( 'NONE',  ( -3.491481338843133355E-15, 1.224646799147353207E-16, -1.000000000000000000 ) ) ;
#115 = DIRECTION ( 'NONE',  ( -3.491481338843133355E-15, 1.224646799147353207E-16, -1.000000000000000000 ) ) ;
#116 = DIRECTION ( 'NONE',  ( 0.0000000000000000000, 1.000000000000000000, 0.0000000000000000000 ) ) ;
#117 =( NAMED_UNIT ( * ) PLANE_ANGLE_UNIT ( ) SI_UNIT ( $, .RADIAN. ) );
#118 = APPROVAL_PERSON_ORGANIZATION ( #193, #64, #102 ) ;
#119 = EDGE_LOOP ( 'NONE', ( #86 ) ) ;
#120 = SECURITY_CLASSIFICATION_LEVEL ( 'unclassified' ) ;
#121 = PERSON_AND_ORGANIZATION ( #15, #18 ) ;
#122 = AXIS2_PLACEMENT_3D ( 'NONE', #73, #103, #76 ) ;
#123 = PRODUCT_RELATED_PRODUCT_CATEGORY ( 'detail', '', ( #179 ) ) ;
#124 = AXIS2_PLACEMENT_3D ( 'NONE', #98, #21, #110 ) ;
#125 = PLANE ( 'NONE',  #22 ) ;
#126 = PERSON_AND_ORGANIZATION_ROLE ( 'design_owner' ) ;
#127 = CARTESIAN_POINT ( 'NONE',  ( 3.212162831735682182E-13, 5.624099184981952345E-32, 92.00000000000000000 ) ) ;
#128 =( LENGTH_UNIT ( ) NAMED_UNIT ( * ) SI_UNIT ( .MILLI., .METRE. ) );
#129 = ADVANCED_FACE ( 'NONE', ( #147, #4 ), #42, .T. ) ;
#130 = CARTESIAN_POINT ( 'NONE',  ( 1.047444401652940007E-13, 5.999039130647424958E-32, 30.00000000000000000 ) ) ;
#131 = CARTESIAN_POINT ( 'NONE',  ( 3.212162831735682182E-13, -1.126675055215564941E-14, 92.00000000000000000 ) ) ;
#132 = ORIENTED_EDGE ( 'NONE', *, *, #173, .F. ) ;
#133 = COORDINATED_UNIVERSAL_TIME_OFFSET ( 1, 0, .AHEAD. ) ;
#134 = CC_DESIGN_PERSON_AND_ORGANIZATION_ASSIGNMENT ( #92, #80, ( #96 ) ) ;
#135 = APPROVAL_ROLE ( '' ) ;
#136 = APPROVAL_DATE_TIME ( #155, #202 ) ;
#137 = APPLICATION_CONTEXT ( 'configuration controlled 3d designs of mechanical parts and assemblies' ) ;
#138 = CIRCLE ( 'NONE', #54, 8.000000000000000000 ) ;
#139 = UNCERTAINTY_MEASURE_WITH_UNIT (LENGTH_MEASURE( 1.000000000000000082E-05 ), #128, 'distance_accuracy_value', 'NONE');
#140 = ADVANCED_FACE ( 'NONE', ( #56 ), #27, .F. ) ;
#141 = DIRECTION ( 'NONE',  ( 1.000000000000000000, 0.0000000000000000000, 0.0000000000000000000 ) ) ;
#142 = EDGE_LOOP ( 'NONE', ( #84 ) ) ;
#143 = CARTESIAN_POINT ( 'NONE',  ( 6.842277657836020854E-46, 8.000000000000000000, 0.0000000000000000000 ) ) ;
#144 =( GEOMETRIC_REPRESENTATION_CONTEXT ( 3 ) GLOBAL_UNCERTAINTY_ASSIGNED_CONTEXT ( ( #139 ) ) GLOBAL_UNIT_ASSIGNED_CONTEXT ( ( #128, #117, #195 ) ) REPRESENTATION_CONTEXT ( 'NONE', 'WORKASPACE' ) );
#145 = EDGE_LOOP ( 'NONE', ( #132 ) ) ;
#146 = EDGE_LOOP ( 'NONE', ( #31 ) ) ;
#147 = FACE_OUTER_BOUND ( 'NONE', #90, .T. ) ;
#148 = DIRECTION ( 'NONE',  ( 4.275831445896958607E-31, 1.000000000000000000, 1.224646799147353207E-16 ) ) ;
#149 = COORDINATED_UNIVERSAL_TIME_OFFSET ( 1, 0, .AHEAD. ) ;
#150 = DIRECTION ( 'NONE',  ( -3.491481338843133355E-15, 1.224646799147353207E-16, -1.000000000000000000 ) ) ;
#151 = DATE_AND_TIME ( #199, #81 ) ;
#152 = AXIS2_PLACEMENT_3D ( 'NONE', #24, #178, #159 ) ;
#153 = COORDINATED_UNIVERSAL_TIME_OFFSET ( 1, 0, .AHEAD. ) ;
#154 = CC_DESIGN_DATE_AND_TIME_ASSIGNMENT ( #77, #185, ( #96 ) ) ;
#155 = DATE_AND_TIME ( #169, #192 ) ;
#156 = CARTESIAN_POINT ( 'NONE',  ( 0.0000000000000000000, 0.0000000000000000000, 0.0000000000000000000 ) ) ;
#157 = AXIS2_PLACEMENT_3D ( 'NONE', #39, #115, #71 ) ;
#158 = CYLINDRICAL_SURFACE ( 'NONE', #13, 8.000000000000000000 ) ;
#159 = DIRECTION ( 'NONE',  ( 0.0000000000000000000, 1.000000000000000000, 0.0000000000000000000 ) ) ;
#160 = DIRECTION ( 'NONE',  ( 0.0000000000000000000, 1.000000000000000000, 0.0000000000000000000 ) ) ;
#161 = CARTESIAN_POINT ( 'NONE',  ( 1.047444401652940007E-13, 5.999039130647424958E-32, 30.00000000000000000 ) ) ;
#162 = PRODUCT_DEFINITION_SHAPE ( 'NONE', 'NONE',  #36 ) ;
#163 = VERTEX_POINT ( 'NONE', #143 ) ;
#164 = CARTESIAN_POINT ( 'NONE',  ( 0.0000000000000000000, 0.0000000000000000000, 0.0000000000000000000 ) ) ;
#165 = CALENDAR_DATE ( 2021, 12, 11 ) ;
#166 = FACE_OUTER_BOUND ( 'NONE', #119, .T. ) ;
#167 = ADVANCED_BREP_SHAPE_REPRESENTATION ( '27072', ( #44, #37, #82 ), #144 ) ;
#168 = APPROVAL_DATE_TIME ( #151, #60 ) ;
#169 = CALENDAR_DATE ( 2021, 12, 11 ) ;
#170 = APPROVAL_STATUS ( 'not_yet_approved' ) ;
#171 = CLOSED_SHELL ( 'NONE', ( #203, #93, #48 ) ) ;
#172 = AXIS2_PLACEMENT_3D ( 'NONE', #58, #68, #116 ) ;
#173 = EDGE_CURVE ( 'NONE', #6, #6, #38, .T. ) ;
#174 = CARTESIAN_POINT ( 'NONE',  ( 1.047444401652940007E-13, 7.999999999999996447, 30.00000000000000000 ) ) ;
#175 = EDGE_LOOP ( 'NONE', ( #182 ) ) ;
#176 = APPROVAL_STATUS ( 'not_yet_approved' ) ;
#177 = DIRECTION ( 'NONE',  ( 4.275831445896958607E-31, 1.000000000000000000, 1.224646799147353207E-16 ) ) ;
#178 = DIRECTION ( 'NONE',  ( -3.491481338843133355E-15, 1.224646799147353207E-16, -1.000000000000000000 ) ) ;
#179 = PRODUCT ( '27072', '27072', '', ( #1 ) ) ;
#180 = FACE_OUTER_BOUND ( 'NONE', #142, .T. ) ;
#181 = DIRECTION ( 'NONE',  ( 0.0000000000000000000, 0.0000000000000000000, 1.000000000000000000 ) ) ;
#182 = ORIENTED_EDGE ( 'NONE', *, *, #20, .T. ) ;
#183 = DIRECTION ( 'NONE',  ( 3.491481338843133355E-15, -1.224646799147353207E-16, 1.000000000000000000 ) ) ;
#184 = FACE_OUTER_BOUND ( 'NONE', #145, .T. ) ;
#185 = DATE_TIME_ROLE ( 'classification_date' ) ;
#186 = PERSON_AND_ORGANIZATION_ROLE ( 'creator' ) ;
#187 = CC_DESIGN_APPROVAL ( #60, ( #25 ) ) ;
#188 = CC_DESIGN_PERSON_AND_ORGANIZATION_ASSIGNMENT ( #30, #62, ( #25 ) ) ;
#189 = AXIS2_PLACEMENT_3D ( 'NONE', #161, #183, #87 ) ;
#190 = CC_DESIGN_APPROVAL ( #202, ( #96 ) ) ;
#191 = CONICAL_SURFACE ( 'NONE', #172, 7.500000000000004441, 0.7853981633974405074 ) ;
#192 = LOCAL_TIME ( 11, 8, 54.00000000000000000, #34 ) ;
#193 = PERSON_AND_ORGANIZATION ( #15, #18 ) ;
#194 = CARTESIAN_POINT ( 'NONE',  ( -3.420665156717566185E-30, 1.199807826129486086E-31, -9.797174393178825657E-16 ) ) ;
#195 =( NAMED_UNIT ( * ) SI_UNIT ( $, .STERADIAN. ) SOLID_ANGLE_UNIT ( ) );
#196 = DIRECTION ( 'NONE',  ( -3.491481338843133355E-15, 1.224646799147353207E-16, -1.000000000000000000 ) ) ;
#197 = CARTESIAN_POINT ( 'NONE',  ( 1.047444401652940007E-13, 7.999999999999996447, 30.00000000000000000 ) ) ;
#198 = EDGE_LOOP ( 'NONE', ( #99 ) ) ;
#199 = CALENDAR_DATE ( 2021, 12, 11 ) ;
#200 = DATE_AND_TIME ( #32, #41 ) ;
#201 = CC_DESIGN_APPROVAL ( #64, ( #36 ) ) ;
#202 = APPROVAL ( #12, 'UNSPECIFIED' ) ;
#203 = ADVANCED_FACE ( 'NONE', ( #8 ), #19, .T. ) ;
ENDSEC;
END-ISO-10303-21;
