ISO-10303-21;
HEADER;
FILE_DESCRIPTION (( 'STEP AP203' ),
    '1' );
FILE_NAME ('270.step',
    '2021-09-03T07:21:43',
    ( '' ),
    ( '' ),
    'SwSTEP 2.0',
    'SolidWorks 2019',
    '' );
FILE_SCHEMA (( 'CONFIG_CONTROL_DESIGN' ));
ENDSEC;

DATA;
#1 = DIRECTION ( 'NONE',  ( -3.491481338843133355E-15, 1.224646799147353207E-16, -1.000000000000000000 ) ) ;
#2 = CARTESIAN_POINT ( 'NONE',  ( 1.887304570720925472E-15, 0.8499999999999953149, 0.5107315261734289846 ) ) ;
#3 = ORIENTED_EDGE ( 'NONE', *, *, #326, .T. ) ;
#4 = CARTESIAN_POINT ( 'NONE',  ( 1.783209592793400360E-15, -6.254657287519323048E-17, 0.5107315261734288736 ) ) ;
#5 = DIRECTION ( 'NONE',  ( -3.491481338843133355E-15, 1.224646799147353207E-16, -1.000000000000000000 ) ) ;
#6 = AXIS2_PLACEMENT_3D ( 'NONE', #169, #225, #187 ) ;
#7 = VERTEX_POINT ( 'NONE', #105 ) ;
#8 = CYLINDRICAL_SURFACE ( 'NONE', #74, 0.8499999999999959810 ) ;
#9 = DIRECTION ( 'NONE',  ( 0.0000000000000000000, 0.0000000000000000000, 1.000000000000000000 ) ) ;
#10 = CARTESIAN_POINT ( 'NONE',  ( 1.887304570720925472E-15, 0.8499999999999953149, 0.5107315261734289846 ) ) ;
#11 = DATE_TIME_ROLE ( 'creation_date' ) ;
#12 = AXIS2_PLACEMENT_3D ( 'NONE', #4, #88, #117 ) ;
#13 = FACE_OUTER_BOUND ( 'NONE', #316, .T. ) ;
#14 = FACE_OUTER_BOUND ( 'NONE', #230, .T. ) ;
#15 = PERSON_AND_ORGANIZATION_ROLE ( 'design_owner' ) ;
#16 = ORIENTED_EDGE ( 'NONE', *, *, #175, .T. ) ;
#17 = CIRCLE ( 'NONE', #89, 0.6500000000000000222 ) ;
#18 = DATE_AND_TIME ( #256, #260 ) ;
#19 = DIRECTION ( 'NONE',  ( -3.491481338843133355E-15, 1.224646799147353207E-16, -1.000000000000000000 ) ) ;
#20 = DIRECTION ( 'NONE',  ( -3.491481338843133355E-15, 1.224646799147353207E-16, -1.000000000000000000 ) ) ;
#21 = DIRECTION ( 'NONE',  ( -3.491481338843133355E-15, 1.224646799147353207E-16, -1.000000000000000000 ) ) ;
#22 = EDGE_CURVE ( 'NONE', #247, #80, #146, .T. ) ;
#23 = DIRECTION ( 'NONE',  ( 0.0000000000000000000, 1.000000000000000000, 0.0000000000000000000 ) ) ;
#24 = ORIENTED_EDGE ( 'NONE', *, *, #184, .T. ) ;
#25 = VECTOR ( 'NONE', #315, 1000.000000000000114 ) ;
#26 = VERTEX_POINT ( 'NONE', #95 ) ;
#27 = CARTESIAN_POINT ( 'NONE',  ( 1.326762908760390423E-13, 0.6499999999999953593, 38.00000000000000000 ) ) ;
#28 = EDGE_CURVE ( 'NONE', #152, #189, #67, .T. ) ;
#29 = FACE_OUTER_BOUND ( 'NONE', #140, .T. ) ;
#30 = ORIENTED_EDGE ( 'NONE', *, *, #122, .F. ) ;
#31 = LINE ( 'NONE', #103, #32 ) ;
#32 = VECTOR ( 'NONE', #94, 1000.000000000000000 ) ;
#33 = PERSON_AND_ORGANIZATION ( #116, #65 ) ;
#34 = EDGE_LOOP ( 'NONE', ( #219, #222, #3, #221 ) ) ;
#35 = DIRECTION ( 'NONE',  ( -3.491481338843133355E-15, 1.224646799147353207E-16, -1.000000000000000000 ) ) ;
#36 = APPROVAL ( #66, 'UNSPECIFIED' ) ;
#37 = DIRECTION ( 'NONE',  ( 0.0000000000000000000, 1.000000000000000000, 0.0000000000000000000 ) ) ;
#38 = CALENDAR_DATE ( 2021, 3, 9 ) ;
#39 = DIRECTION ( 'NONE',  ( -3.491481338843133355E-15, 1.224646799147353207E-16, -1.000000000000000000 ) ) ;
#40 = ORIENTED_EDGE ( 'NONE', *, *, #175, .F. ) ;
#41 = VECTOR ( 'NONE', #139, 1000.000000000000000 ) ;
#42 = CARTESIAN_POINT ( 'NONE',  ( 0.0000000000000000000, 0.0000000000000000000, 0.0000000000000000000 ) ) ;
#43 = DATE_AND_TIME ( #180, #239 ) ;
#44 = CIRCLE ( 'NONE', #6, 0.8499999999999964251 ) ;
#45 = DIRECTION ( 'NONE',  ( 4.531599869146461927E-31, 1.000000000000000000, 1.275531967630012148E-16 ) ) ;
#46 = SHAPE_DEFINITION_REPRESENTATION ( #141, #245 ) ;
#47 = CARTESIAN_POINT ( 'NONE',  ( 0.0000000000000000000, 0.0000000000000000000, 0.0000000000000000000 ) ) ;
#48 = CLOSED_SHELL ( 'NONE', ( #267, #72, #164, #241, #329 ) ) ;
#49 = EDGE_CURVE ( 'NONE', #170, #287, #17, .T. ) ;
#50 = FACE_OUTER_BOUND ( 'NONE', #70, .T. ) ;
#51 = CARTESIAN_POINT ( 'NONE',  ( 1.326762908760390423E-13, -4.653657836759941941E-15, 38.00000000000000000 ) ) ;
#52 = CARTESIAN_POINT ( 'NONE',  ( 0.0000000000000000000, 0.0000000000000000000, 0.0000000000000000000 ) ) ;
#53 = DESIGN_CONTEXT ( 'detailed design', #173, 'design' ) ;
#54 = CC_DESIGN_APPROVAL ( #36, ( #217 ) ) ;
#55 = DIRECTION ( 'NONE',  ( 1.903218546456021928E-15, 0.8571673007021098911, 0.5150380749100583744 ) ) ;
#56 = MANIFOLD_SOLID_BREP ( 'Corps-Déplacer/Copier1[2]', #48 ) ;
#57 = ADVANCED_FACE ( 'NONE', ( #13 ), #84, .F. ) ;
#58 = CARTESIAN_POINT ( 'NONE',  ( 1.783209592793399965E-15, -0.8499999999999955369, 0.5107315261734287626 ) ) ;
#59 = MANIFOLD_SOLID_BREP ( 'Corps-Déplacer/Copier1[1]', #203 ) ;
#60 = CARTESIAN_POINT ( 'NONE',  ( 0.0000000000000000000, 0.0000000000000000000, 0.0000000000000000000 ) ) ;
#61 = PERSON_AND_ORGANIZATION_ROLE ( 'creator' ) ;
#62 = VERTEX_POINT ( 'NONE', #309 ) ;
#63 = DIRECTION ( 'NONE',  ( -4.275831445896958607E-31, -1.000000000000000000, -1.224646799147353207E-16 ) ) ;
#64 = EDGE_CURVE ( 'NONE', #144, #189, #81, .T. ) ;
#65 = ORGANIZATION ( 'UNSPECIFIED', 'UNSPECIFIED', '' ) ;
#66 = APPROVAL_STATUS ( 'not_yet_approved' ) ;
#67 = LINE ( 'NONE', #276, #259 ) ;
#68 = CARTESIAN_POINT ( 'NONE',  ( 0.0000000000000000000, 0.0000000000000000000, 0.0000000000000000000 ) ) ;
#69 = ORIENTED_EDGE ( 'NONE', *, *, #161, .T. ) ;
#70 = EDGE_LOOP ( 'NONE', ( #322, #233, #319, #40 ) ) ;
#71 = CALENDAR_DATE ( 2021, 3, 9 ) ;
#72 = ADVANCED_FACE ( 'NONE', ( #335 ), #332, .T. ) ;
#73 = DIRECTION ( 'NONE',  ( -3.491481338843133355E-15, 1.224646799147353207E-16, -1.000000000000000000 ) ) ;
#74 = AXIS2_PLACEMENT_3D ( 'NONE', #60, #271, #174 ) ;
#75 = COORDINATED_UNIVERSAL_TIME_OFFSET ( 1, 0, .AHEAD. ) ;
#76 = DIRECTION ( 'NONE',  ( 0.0000000000000000000, 1.000000000000000000, 0.0000000000000000000 ) ) ;
#77 = DIRECTION ( 'NONE',  ( -2.382254525458708792E-15, -0.7071067811865495711, -0.7071067811865455743 ) ) ;
#78 = APPROVAL_ROLE ( '' ) ;
#79 = CC_DESIGN_PERSON_AND_ORGANIZATION_ASSIGNMENT ( #197, #244, ( #337 ) ) ;
#80 = VERTEX_POINT ( 'NONE', #143 ) ;
#81 = LINE ( 'NONE', #202, #41 ) ;
#82 = EDGE_CURVE ( 'NONE', #26, #7, #44, .T. ) ;
#83 = EDGE_LOOP ( 'NONE', ( #304, #24, #131 ) ) ;
#84 = PLANE ( 'NONE',  #179 ) ;
#85 = CIRCLE ( 'NONE', #311, 0.8499999999999954259 ) ;
#86 = UNCERTAINTY_MEASURE_WITH_UNIT (LENGTH_MEASURE( 1.000000000000000082E-05 ), #243, 'distance_accuracy_value', 'NONE');
#87 = DIRECTION ( 'NONE',  ( 4.275831445896958607E-31, 1.000000000000000000, 1.224646799147353207E-16 ) ) ;
#88 = DIRECTION ( 'NONE',  ( 3.491481338843133355E-15, -1.224646799147353207E-16, 1.000000000000000000 ) ) ;
#89 = AXIS2_PLACEMENT_3D ( 'NONE', #101, #280, #251 ) ;
#90 = ORIENTED_EDGE ( 'NONE', *, *, #196, .F. ) ;
#91 = ORIENTED_EDGE ( 'NONE', *, *, #118, .F. ) ;
#92 = DIRECTION ( 'NONE',  ( -3.491481338843133355E-15, 1.224646799147353207E-16, -1.000000000000000000 ) ) ;
#93 = ORIENTED_EDGE ( 'NONE', *, *, #258, .T. ) ;
#94 = DIRECTION ( 'NONE',  ( -3.491481338843133355E-15, 1.224646799147353207E-16, -1.000000000000000000 ) ) ;
#95 = CARTESIAN_POINT ( 'NONE',  ( 8.180475830685679869E-14, -0.8499999999999974243, 9.000000000000000000 ) ) ;
#96 =( NAMED_UNIT ( * ) PLANE_ANGLE_UNIT ( ) SI_UNIT ( $, .RADIAN. ) );
#97 = CONICAL_SURFACE ( 'NONE', #265, 0.6500000000000000222, 0.7853981633974512766 ) ;
#98 = CC_DESIGN_APPROVAL ( #246, ( #158 ) ) ;
#99 = APPROVAL_DATE_TIME ( #200, #36 ) ;
#100 = ORIENTED_EDGE ( 'NONE', *, *, #137, .T. ) ;
#101 = CARTESIAN_POINT ( 'NONE',  ( 1.326762908760390423E-13, -4.653657836759941941E-15, 38.00000000000000000 ) ) ;
#102 = EDGE_LOOP ( 'NONE', ( #150, #90 ) ) ;
#103 = CARTESIAN_POINT ( 'NONE',  ( 3.634456729012406671E-31, 0.8499999999999980904, 1.040949779275247921E-16 ) ) ;
#104 = ADVANCED_FACE ( 'NONE', ( #307 ), #261, .F. ) ;
#105 = CARTESIAN_POINT ( 'NONE',  ( 3.142333204958820020E-14, 0.8499999999999953149, 9.000000000000000000 ) ) ;
#106 = VECTOR ( 'NONE', #55, 1000.000000000000114 ) ;
#107 = COORDINATED_UNIVERSAL_TIME_OFFSET ( 1, 0, .AHEAD. ) ;
#108 = APPROVAL_STATUS ( 'not_yet_approved' ) ;
#109 = CC_DESIGN_DATE_AND_TIME_ASSIGNMENT ( #248, #11, ( #217 ) ) ;
#110 = APPROVAL_DATE_TIME ( #18, #246 ) ;
#111 = AXIS2_PLACEMENT_3D ( 'NONE', #240, #123, #63 ) ;
#112 = FACE_OUTER_BOUND ( 'NONE', #213, .T. ) ;
#113 = LINE ( 'NONE', #2, #106 ) ;
#114 = DIRECTION ( 'NONE',  ( 3.491481338843133355E-15, -1.224646799147353207E-16, 1.000000000000000000 ) ) ;
#115 = AXIS2_PLACEMENT_3D ( 'NONE', #232, #163, #190 ) ;
#116 = PERSON ( 'UNSPECIFIED', 'UNSPECIFIED', 'UNSPECIFIED', ('UNSPECIFIED'), ('UNSPECIFIED'), ('UNSPECIFIED') ) ;
#117 = DIRECTION ( 'NONE',  ( -4.531599869146461927E-31, -1.000000000000000000, -1.275531967630012148E-16 ) ) ;
#118 = EDGE_CURVE ( 'NONE', #287, #80, #185, .T. ) ;
#119 = LINE ( 'NONE', #27, #25 ) ;
#120 = AXIS2_PLACEMENT_3D ( 'NONE', #136, #114, #313 ) ;
#121 = DIRECTION ( 'NONE',  ( 4.275831445896958607E-31, 1.000000000000000000, 1.224646799147353207E-16 ) ) ;
#122 = EDGE_CURVE ( 'NONE', #268, #189, #249, .T. ) ;
#123 = DIRECTION ( 'NONE',  ( 3.491481338843133355E-15, -1.224646799147353207E-16, 1.000000000000000000 ) ) ;
#124 = ORIENTED_EDGE ( 'NONE', *, *, #28, .T. ) ;
#125 = CARTESIAN_POINT ( 'NONE',  ( 3.634456729012397475E-31, 0.8499999999999959810, 1.040949779275245209E-16 ) ) ;
#126 = APPROVAL_STATUS ( 'not_yet_approved' ) ;
#127 = PLANE ( 'NONE',  #111 ) ;
#128 = PERSON_AND_ORGANIZATION ( #116, #65 ) ;
#129 = ADVANCED_FACE ( 'NONE', ( #112 ), #288, .T. ) ;
#130 = SECURITY_CLASSIFICATION_LEVEL ( 'unclassified' ) ;
#131 = ORIENTED_EDGE ( 'NONE', *, *, #122, .T. ) ;
#132 = CARTESIAN_POINT ( 'NONE',  ( 1.783209592793400360E-15, -6.254657287519323048E-17, 0.5107315261734288736 ) ) ;
#133 = AXIS2_PLACEMENT_3D ( 'NONE', #269, #312, #166 ) ;
#134 = PERSON_AND_ORGANIZATION ( #116, #65 ) ;
#135 = EDGE_CURVE ( 'NONE', #80, #26, #138, .T. ) ;
#136 = CARTESIAN_POINT ( 'NONE',  ( 1.783209592793400360E-15, -6.254657287519323048E-17, 0.5107315261734288736 ) ) ;
#137 = EDGE_CURVE ( 'NONE', #80, #247, #306, .T. ) ;
#138 = LINE ( 'NONE', #292, #182 ) ;
#139 = DIRECTION ( 'NONE',  ( 1.798245827342159528E-15, -0.8571673007021100021, 0.5150380749100580413 ) ) ;
#140 = EDGE_LOOP ( 'NONE', ( #301, #100, #93, #266 ) ) ;
#141 = PRODUCT_DEFINITION_SHAPE ( 'NONE', 'NONE',  #217 ) ;
#142 = CC_DESIGN_PERSON_AND_ORGANIZATION_ASSIGNMENT ( #252, #61, ( #337 ) ) ;
#143 = CARTESIAN_POINT ( 'NONE',  ( 8.180475830685662198E-14, -0.8500000000000047518, 37.79999999999999716 ) ) ;
#144 = VERTEX_POINT ( 'NONE', #52 ) ;
#145 = CYLINDRICAL_SURFACE ( 'NONE', #317, 0.8499999999999980904 ) ;
#146 = CIRCLE ( 'NONE', #323, 0.8499999999999999778 ) ;
#147 = DIRECTION ( 'NONE',  ( -3.491481338843133355E-15, 1.224646799147353207E-16, -1.000000000000000000 ) ) ;
#148 = PERSON_AND_ORGANIZATION_ROLE ( 'classification_officer' ) ;
#149 = DIRECTION ( 'NONE',  ( 0.0000000000000000000, 1.000000000000000000, 0.0000000000000000000 ) ) ;
#150 = ORIENTED_EDGE ( 'NONE', *, *, #188, .F. ) ;
#151 = APPROVAL_ROLE ( '' ) ;
#152 = VERTEX_POINT ( 'NONE', #208 ) ;
#153 = FACE_OUTER_BOUND ( 'NONE', #34, .T. ) ;
#154 = COORDINATED_UNIVERSAL_TIME_OFFSET ( 1, 0, .AHEAD. ) ;
#155 = DIRECTION ( 'NONE',  ( -3.491481338843133355E-15, 1.224646799147353207E-16, -1.000000000000000000 ) ) ;
#156 = FACE_OUTER_BOUND ( 'NONE', #102, .T. ) ;
#157 = AXIS2_PLACEMENT_3D ( 'NONE', #284, #20, #45 ) ;
#158 = SECURITY_CLASSIFICATION ( '', '', #130 ) ;
#159 = DATE_AND_TIME ( #71, #183 ) ;
#160 = CARTESIAN_POINT ( 'NONE',  ( 1.319779946082704535E-13, 0.8499999999999953149, 37.79999999999999716 ) ) ;
#161 = EDGE_CURVE ( 'NONE', #287, #170, #191, .T. ) ;
#162 = PRODUCT ( '270', '270', '', ( #328 ) ) ;
#163 = DIRECTION ( 'NONE',  ( 3.491481338843133355E-15, -1.224646799147353207E-16, 1.000000000000000000 ) ) ;
#164 = ADVANCED_FACE ( 'NONE', ( #264 ), #330, .T. ) ;
#165 = AXIS2_PLACEMENT_3D ( 'NONE', #290, #228, #23 ) ;
#166 = DIRECTION ( 'NONE',  ( 0.0000000000000000000, 1.000000000000000000, 0.0000000000000000000 ) ) ;
#167 = DIRECTION ( 'NONE',  ( -3.491481338843133355E-15, 1.224646799147353207E-16, -1.000000000000000000 ) ) ;
#168 = CC_DESIGN_PERSON_AND_ORGANIZATION_ASSIGNMENT ( #305, #283, ( #217 ) ) ;
#169 = CARTESIAN_POINT ( 'NONE',  ( 3.142333204958820020E-14, -1.102182119232617714E-15, 9.000000000000000000 ) ) ;
#170 = VERTEX_POINT ( 'NONE', #171 ) ;
#171 = CARTESIAN_POINT ( 'NONE',  ( 1.326762908760390423E-13, 0.6499999999999953593, 38.00000000000000000 ) ) ;
#172 = APPROVAL_PERSON_ORGANIZATION ( #278, #36, #302 ) ;
#173 = APPLICATION_CONTEXT ( 'configuration controlled 3d designs of mechanical parts and assemblies' ) ;
#174 = DIRECTION ( 'NONE',  ( 4.275831445896958607E-31, 1.000000000000000000, 1.224646799147353207E-16 ) ) ;
#175 = EDGE_CURVE ( 'NONE', #170, #247, #119, .T. ) ;
#176 = ORIENTED_EDGE ( 'NONE', *, *, #22, .T. ) ;
#177 =( NAMED_UNIT ( * ) SI_UNIT ( $, .STERADIAN. ) SOLID_ANGLE_UNIT ( ) );
#178 = LINE ( 'NONE', #125, #231 ) ;
#179 = AXIS2_PLACEMENT_3D ( 'NONE', #207, #19, #289 ) ;
#180 = CALENDAR_DATE ( 2021, 3, 9 ) ;
#181 = ORIENTED_EDGE ( 'NONE', *, *, #326, .F. ) ;
#182 = VECTOR ( 'NONE', #1, 1000.000000000000000 ) ;
#183 = LOCAL_TIME ( 9, 21, 43.00000000000000000, #107 ) ;
#184 = EDGE_CURVE ( 'NONE', #144, #268, #113, .T. ) ;
#185 = LINE ( 'NONE', #229, #294 ) ;
#186 = AXIS2_PLACEMENT_3D ( 'NONE', #212, #92, #295 ) ;
#187 = DIRECTION ( 'NONE',  ( 0.0000000000000000000, 1.000000000000000000, 0.0000000000000000000 ) ) ;
#188 = EDGE_CURVE ( 'NONE', #62, #152, #286, .T. ) ;
#189 = VERTEX_POINT ( 'NONE', #58 ) ;
#190 = DIRECTION ( 'NONE',  ( -4.275831445896958607E-31, -1.000000000000000000, -1.224646799147353207E-16 ) ) ;
#191 = CIRCLE ( 'NONE', #226, 0.6500000000000000222 ) ;
#192 = EDGE_LOOP ( 'NONE', ( #198, #303 ) ) ;
#193 = DIRECTION ( 'NONE',  ( 1.000000000000000000, 0.0000000000000000000, 0.0000000000000000000 ) ) ;
#194 = CONICAL_SURFACE ( 'NONE', #214, 0.6500000000000000222, 0.7853981633974512766 ) ;
#195 = DIRECTION ( 'NONE',  ( 4.275831445896958607E-31, 1.000000000000000000, 1.224646799147353207E-16 ) ) ;
#196 = EDGE_CURVE ( 'NONE', #152, #62, #281, .T. ) ;
#197 = PERSON_AND_ORGANIZATION ( #116, #65 ) ;
#198 = ORIENTED_EDGE ( 'NONE', *, *, #333, .T. ) ;
#199 = CYLINDRICAL_SURFACE ( 'NONE', #223, 0.8499999999999959810 ) ;
#200 = DATE_AND_TIME ( #38, #206 ) ;
#201 = ADVANCED_FACE ( 'NONE', ( #29 ), #145, .T. ) ;
#202 = CARTESIAN_POINT ( 'NONE',  ( 1.783209592793399965E-15, -0.8499999999999955369, 0.5107315261734287626 ) ) ;
#203 = CLOSED_SHELL ( 'NONE', ( #205, #129, #104, #201, #334, #57 ) ) ;
#204 = APPROVAL_DATE_TIME ( #159, #314 ) ;
#205 = ADVANCED_FACE ( 'NONE', ( #50 ), #194, .T. ) ;
#206 = LOCAL_TIME ( 9, 21, 43.00000000000000000, #321 ) ;
#207 = CARTESIAN_POINT ( 'NONE',  ( 1.326762908760390423E-13, 4.874219293650967434E-33, 38.00000000000000000 ) ) ;
#208 = CARTESIAN_POINT ( 'NONE',  ( 1.670736579911830902E-14, -0.8499999999999975353, 9.000000000000000000 ) ) ;
#209 =( GEOMETRIC_REPRESENTATION_CONTEXT ( 3 ) GLOBAL_UNCERTAINTY_ASSIGNED_CONTEXT ( ( #86 ) ) GLOBAL_UNIT_ASSIGNED_CONTEXT ( ( #243, #96, #177 ) ) REPRESENTATION_CONTEXT ( 'NONE', 'WORKASPACE' ) );
#210 = APPROVAL_PERSON_ORGANIZATION ( #134, #246, #78 ) ;
#211 = ORIENTED_EDGE ( 'NONE', *, *, #49, .F. ) ;
#212 = CARTESIAN_POINT ( 'NONE',  ( 3.142333204958820020E-14, -1.102182119232617714E-15, 9.000000000000000000 ) ) ;
#213 = EDGE_LOOP ( 'NONE', ( #176, #296, #218, #242 ) ) ;
#214 = AXIS2_PLACEMENT_3D ( 'NONE', #262, #21, #37 ) ;
#215 = FACE_OUTER_BOUND ( 'NONE', #279, .T. ) ;
#216 = APPLICATION_PROTOCOL_DEFINITION ( 'international standard', 'config_control_design', 1994, #173 ) ;
#217 = PRODUCT_DEFINITION ( 'UNKNOWN', '', #337, #53 ) ;
#218 = ORIENTED_EDGE ( 'NONE', *, *, #333, .F. ) ;
#219 = ORIENTED_EDGE ( 'NONE', *, *, #28, .F. ) ;
#220 = DIRECTION ( 'NONE',  ( 0.0000000000000000000, 1.000000000000000000, 0.0000000000000000000 ) ) ;
#221 = ORIENTED_EDGE ( 'NONE', *, *, #308, .F. ) ;
#222 = ORIENTED_EDGE ( 'NONE', *, *, #196, .T. ) ;
#223 = AXIS2_PLACEMENT_3D ( 'NONE', #68, #39, #195 ) ;
#224 = CC_DESIGN_DATE_AND_TIME_ASSIGNMENT ( #43, #253, ( #158 ) ) ;
#225 = DIRECTION ( 'NONE',  ( -3.491481338843133355E-15, 1.224646799147353207E-16, -1.000000000000000000 ) ) ;
#226 = AXIS2_PLACEMENT_3D ( 'NONE', #51, #167, #263 ) ;
#227 = CC_DESIGN_APPROVAL ( #314, ( #337 ) ) ;
#228 = DIRECTION ( 'NONE',  ( -3.491481338843133355E-15, 1.224646799147353207E-16, -1.000000000000000000 ) ) ;
#229 = CARTESIAN_POINT ( 'NONE',  ( 1.327558929179836416E-13, -0.6500000000000046851, 38.00000000000000000 ) ) ;
#230 = EDGE_LOOP ( 'NONE', ( #291, #124, #30, #181 ) ) ;
#231 = VECTOR ( 'NONE', #282, 1000.000000000000000 ) ;
#232 = CARTESIAN_POINT ( 'NONE',  ( 3.142333204958820020E-14, 6.373979076312851043E-33, 9.000000000000000000 ) ) ;
#233 = ORIENTED_EDGE ( 'NONE', *, *, #118, .T. ) ;
#234 = ORIENTED_EDGE ( 'NONE', *, *, #184, .F. ) ;
#235 = ORIENTED_EDGE ( 'NONE', *, *, #137, .F. ) ;
#236 = CARTESIAN_POINT ( 'NONE',  ( 0.0000000000000000000, 0.0000000000000000000, 0.0000000000000000000 ) ) ;
#237 = EDGE_LOOP ( 'NONE', ( #234, #336, #270 ) ) ;
#238 = AXIS2_PLACEMENT_3D ( 'NONE', #47, #257, #87 ) ;
#239 = LOCAL_TIME ( 9, 21, 43.00000000000000000, #75 ) ;
#240 = CARTESIAN_POINT ( 'NONE',  ( 3.142333204958820020E-14, 6.373979076312851043E-33, 9.000000000000000000 ) ) ;
#241 = ADVANCED_FACE ( 'NONE', ( #153 ), #8, .T. ) ;
#242 = ORIENTED_EDGE ( 'NONE', *, *, #258, .F. ) ;
#243 =( LENGTH_UNIT ( ) NAMED_UNIT ( * ) SI_UNIT ( .MILLI., .METRE. ) );
#244 = PERSON_AND_ORGANIZATION_ROLE ( 'design_supplier' ) ;
#245 = ADVANCED_BREP_SHAPE_REPRESENTATION ( '270', ( #59, #56, #254 ), #209 ) ;
#246 = APPROVAL ( #108, 'UNSPECIFIED' ) ;
#247 = VERTEX_POINT ( 'NONE', #160 ) ;
#248 = DATE_AND_TIME ( #275, #250 ) ;
#249 = CIRCLE ( 'NONE', #157, 0.8499999999999954259 ) ;
#250 = LOCAL_TIME ( 9, 21, 43.00000000000000000, #154 ) ;
#251 = DIRECTION ( 'NONE',  ( 0.0000000000000000000, 1.000000000000000000, 0.0000000000000000000 ) ) ;
#252 = PERSON_AND_ORGANIZATION ( #116, #65 ) ;
#253 = DATE_TIME_ROLE ( 'classification_date' ) ;
#254 = AXIS2_PLACEMENT_3D ( 'NONE', #42, #9, #193 ) ;
#255 = APPROVAL_PERSON_ORGANIZATION ( #128, #314, #151 ) ;
#256 = CALENDAR_DATE ( 2021, 3, 9 ) ;
#257 = DIRECTION ( 'NONE',  ( -3.491481338843133355E-15, 1.224646799147353207E-16, -1.000000000000000000 ) ) ;
#258 = EDGE_CURVE ( 'NONE', #247, #7, #31, .T. ) ;
#259 = VECTOR ( 'NONE', #155, 1000.000000000000000 ) ;
#260 = LOCAL_TIME ( 9, 21, 43.00000000000000000, #331 ) ;
#261 = PLANE ( 'NONE',  #115 ) ;
#262 = CARTESIAN_POINT ( 'NONE',  ( 1.326762908760390423E-13, -4.653657836759941941E-15, 38.00000000000000000 ) ) ;
#263 = DIRECTION ( 'NONE',  ( 0.0000000000000000000, 1.000000000000000000, 0.0000000000000000000 ) ) ;
#264 = FACE_OUTER_BOUND ( 'NONE', #237, .T. ) ;
#265 = AXIS2_PLACEMENT_3D ( 'NONE', #325, #320, #149 ) ;
#266 = ORIENTED_EDGE ( 'NONE', *, *, #82, .F. ) ;
#267 = ADVANCED_FACE ( 'NONE', ( #14 ), #199, .T. ) ;
#268 = VERTEX_POINT ( 'NONE', #10 ) ;
#269 = CARTESIAN_POINT ( 'NONE',  ( 3.142333204958820020E-14, -1.102182119232617714E-15, 9.000000000000000000 ) ) ;
#270 = ORIENTED_EDGE ( 'NONE', *, *, #308, .T. ) ;
#271 = DIRECTION ( 'NONE',  ( -3.491481338843133355E-15, 1.224646799147353207E-16, -1.000000000000000000 ) ) ;
#272 = APPLICATION_PROTOCOL_DEFINITION ( 'international standard', 'config_control_design', 1994, #310 ) ;
#273 = AXIS2_PLACEMENT_3D ( 'NONE', #274, #35, #220 ) ;
#274 = CARTESIAN_POINT ( 'NONE',  ( 3.142333204958820020E-14, -1.102182119232617714E-15, 9.000000000000000000 ) ) ;
#275 = CALENDAR_DATE ( 2021, 3, 9 ) ;
#276 = CARTESIAN_POINT ( 'NONE',  ( 1.040949779275241635E-16, -0.8499999999999959810, -1.040949779275248907E-16 ) ) ;
#277 = CARTESIAN_POINT ( 'NONE',  ( 1.324189912520908055E-13, -0.6500000000000046851, 38.00000000000000000 ) ) ;
#278 = PERSON_AND_ORGANIZATION ( #116, #65 ) ;
#279 = EDGE_LOOP ( 'NONE', ( #91, #69, #16, #235 ) ) ;
#280 = DIRECTION ( 'NONE',  ( -3.491481338843133355E-15, 1.224646799147353207E-16, -1.000000000000000000 ) ) ;
#281 = CIRCLE ( 'NONE', #133, 0.8499999999999964251 ) ;
#282 = DIRECTION ( 'NONE',  ( -3.491481338843133355E-15, 1.224646799147353207E-16, -1.000000000000000000 ) ) ;
#283 = PERSON_AND_ORGANIZATION_ROLE ( 'creator' ) ;
#284 = CARTESIAN_POINT ( 'NONE',  ( 1.783209592793400360E-15, -6.254657287519323048E-17, 0.5107315261734288736 ) ) ;
#285 = CC_DESIGN_PERSON_AND_ORGANIZATION_ASSIGNMENT ( #327, #15, ( #162 ) ) ;
#286 = CIRCLE ( 'NONE', #186, 0.8499999999999964251 ) ;
#287 = VERTEX_POINT ( 'NONE', #277 ) ;
#288 = CYLINDRICAL_SURFACE ( 'NONE', #238, 0.8499999999999980904 ) ;
#289 = DIRECTION ( 'NONE',  ( 4.275831445896958607E-31, 1.000000000000000000, 1.224646799147353207E-16 ) ) ;
#290 = CARTESIAN_POINT ( 'NONE',  ( 1.319779946082704535E-13, -4.629164900776995227E-15, 37.79999999999999716 ) ) ;
#291 = ORIENTED_EDGE ( 'NONE', *, *, #188, .T. ) ;
#292 = CARTESIAN_POINT ( 'NONE',  ( 1.040949779275244347E-16, -0.8499999999999980904, -1.040949779275251496E-16 ) ) ;
#293 = CC_DESIGN_PERSON_AND_ORGANIZATION_ASSIGNMENT ( #33, #148, ( #158 ) ) ;
#294 = VECTOR ( 'NONE', #77, 1000.000000000000114 ) ;
#295 = DIRECTION ( 'NONE',  ( 0.0000000000000000000, 1.000000000000000000, 0.0000000000000000000 ) ) ;
#296 = ORIENTED_EDGE ( 'NONE', *, *, #135, .T. ) ;
#297 = PRODUCT_RELATED_PRODUCT_CATEGORY ( 'detail', '', ( #162 ) ) ;
#298 = DIRECTION ( 'NONE',  ( 4.531599869146461927E-31, 1.000000000000000000, 1.275531967630012148E-16 ) ) ;
#299 = CIRCLE ( 'NONE', #273, 0.8499999999999964251 ) ;
#300 = CARTESIAN_POINT ( 'NONE',  ( 1.319779946082704535E-13, -4.629164900776995227E-15, 37.79999999999999716 ) ) ;
#301 = ORIENTED_EDGE ( 'NONE', *, *, #135, .F. ) ;
#302 = APPROVAL_ROLE ( '' ) ;
#303 = ORIENTED_EDGE ( 'NONE', *, *, #82, .T. ) ;
#304 = ORIENTED_EDGE ( 'NONE', *, *, #64, .F. ) ;
#305 = PERSON_AND_ORGANIZATION ( #116, #65 ) ;
#306 = CIRCLE ( 'NONE', #165, 0.8499999999999999778 ) ;
#307 = FACE_OUTER_BOUND ( 'NONE', #192, .T. ) ;
#308 = EDGE_CURVE ( 'NONE', #189, #268, #85, .T. ) ;
#309 = CARTESIAN_POINT ( 'NONE',  ( 3.142333204958820020E-14, 0.8499999999999953149, 9.000000000000000000 ) ) ;
#310 = APPLICATION_CONTEXT ( 'configuration controlled 3d designs of mechanical parts and assemblies' ) ;
#311 = AXIS2_PLACEMENT_3D ( 'NONE', #132, #147, #298 ) ;
#312 = DIRECTION ( 'NONE',  ( -3.491481338843133355E-15, 1.224646799147353207E-16, -1.000000000000000000 ) ) ;
#313 = DIRECTION ( 'NONE',  ( -4.531599869146461927E-31, -1.000000000000000000, -1.275531967630012148E-16 ) ) ;
#314 = APPROVAL ( #126, 'UNSPECIFIED' ) ;
#315 = DIRECTION ( 'NONE',  ( -2.468850131082257455E-15, 0.7071067811865497932, -0.7071067811865453523 ) ) ;
#316 = EDGE_LOOP ( 'NONE', ( #211, #318 ) ) ;
#317 = AXIS2_PLACEMENT_3D ( 'NONE', #236, #5, #121 ) ;
#318 = ORIENTED_EDGE ( 'NONE', *, *, #161, .F. ) ;
#319 = ORIENTED_EDGE ( 'NONE', *, *, #22, .F. ) ;
#320 = DIRECTION ( 'NONE',  ( -3.491481338843133355E-15, 1.224646799147353207E-16, -1.000000000000000000 ) ) ;
#321 = COORDINATED_UNIVERSAL_TIME_OFFSET ( 1, 0, .AHEAD. ) ;
#322 = ORIENTED_EDGE ( 'NONE', *, *, #49, .T. ) ;
#323 = AXIS2_PLACEMENT_3D ( 'NONE', #300, #73, #76 ) ;
#324 = CC_DESIGN_SECURITY_CLASSIFICATION ( #158, ( #337 ) ) ;
#325 = CARTESIAN_POINT ( 'NONE',  ( 1.326762908760390423E-13, -4.653657836759941941E-15, 38.00000000000000000 ) ) ;
#326 = EDGE_CURVE ( 'NONE', #62, #268, #178, .T. ) ;
#327 = PERSON_AND_ORGANIZATION ( #116, #65 ) ;
#328 = MECHANICAL_CONTEXT ( 'NONE', #310, 'mechanical' ) ;
#329 = ADVANCED_FACE ( 'NONE', ( #156 ), #127, .T. ) ;
#330 = CONICAL_SURFACE ( 'NONE', #12, 0.8499999999999954259, 1.029744258676649871 ) ;
#331 = COORDINATED_UNIVERSAL_TIME_OFFSET ( 1, 0, .AHEAD. ) ;
#332 = CONICAL_SURFACE ( 'NONE', #120, 0.8499999999999954259, 1.029744258676649871 ) ;
#333 = EDGE_CURVE ( 'NONE', #7, #26, #299, .T. ) ;
#334 = ADVANCED_FACE ( 'NONE', ( #215 ), #97, .T. ) ;
#335 = FACE_OUTER_BOUND ( 'NONE', #83, .T. ) ;
#336 = ORIENTED_EDGE ( 'NONE', *, *, #64, .T. ) ;
#337 = PRODUCT_DEFINITION_FORMATION_WITH_SPECIFIED_SOURCE ( 'ANY', '', #162, .NOT_KNOWN. ) ;
ENDSEC;
END-ISO-10303-21;
