ISO-10303-21;
HEADER;
FILE_DESCRIPTION (( 'STEP AP203' ),
    '1' );
FILE_NAME ('269.step',
    '2021-09-03T07:21:42',
    ( '' ),
    ( '' ),
    'SwSTEP 2.0',
    'SolidWorks 2019',
    '' );
FILE_SCHEMA (( 'CONFIG_CONTROL_DESIGN' ));
ENDSEC;

DATA;
#1 = CYLINDRICAL_SURFACE ( 'NONE', #300, 0.8249999999999958478 ) ;
#2 = DIRECTION ( 'NONE',  ( 4.275831445896958607E-31, 1.000000000000000000, 1.224646799147353207E-16 ) ) ;
#3 = ORIENTED_EDGE ( 'NONE', *, *, #189, .F. ) ;
#4 = PERSON_AND_ORGANIZATION ( #154, #40 ) ;
#5 = CARTESIAN_POINT ( 'NONE',  ( 0.0000000000000000000, 0.0000000000000000000, 0.0000000000000000000 ) ) ;
#6 = EDGE_CURVE ( 'NONE', #216, #199, #259, .T. ) ;
#7 = ORIENTED_EDGE ( 'NONE', *, *, #36, .F. ) ;
#8 = CARTESIAN_POINT ( 'NONE',  ( 1.324159296350929315E-13, -0.6250000000000046629, 38.00000000000000000 ) ) ;
#9 = ORIENTED_EDGE ( 'NONE', *, *, #76, .T. ) ;
#10 = CC_DESIGN_APPROVAL ( #267, ( #108 ) ) ;
#11 = ORIENTED_EDGE ( 'NONE', *, *, #63, .T. ) ;
#12 = CARTESIAN_POINT ( 'NONE',  ( 3.527560942864983537E-31, 0.8249999999999982903, 1.010333609296564282E-16 ) ) ;
#13 = CARTESIAN_POINT ( 'NONE',  ( 3.142333204958820020E-14, -1.102182119232617714E-15, 9.000000000000000000 ) ) ;
#14 = FACE_OUTER_BOUND ( 'NONE', #249, .T. ) ;
#15 = CALENDAR_DATE ( 2021, 3, 9 ) ;
#16 = CIRCLE ( 'NONE', #183, 0.8249999999999954037 ) ;
#17 = COORDINATED_UNIVERSAL_TIME_OFFSET ( 1, 0, .AHEAD. ) ;
#18 = CALENDAR_DATE ( 2021, 3, 9 ) ;
#19 = DIRECTION ( 'NONE',  ( 0.0000000000000000000, 1.000000000000000000, 0.0000000000000000000 ) ) ;
#20 = LOCAL_TIME ( 9, 21, 42.00000000000000000, #81 ) ;
#21 = FACE_OUTER_BOUND ( 'NONE', #299, .T. ) ;
#22 = CARTESIAN_POINT ( 'NONE',  ( 1.326762908760390423E-13, -4.653657836759941941E-15, 38.00000000000000000 ) ) ;
#23 = EDGE_CURVE ( 'NONE', #301, #94, #202, .T. ) ;
#24 = DIRECTION ( 'NONE',  ( 1.000000000000000000, 0.0000000000000000000, 0.0000000000000000000 ) ) ;
#25 = SHAPE_DEFINITION_REPRESENTATION ( #315, #231 ) ;
#26 = ORIENTED_EDGE ( 'NONE', *, *, #100, .T. ) ;
#27 = DIRECTION ( 'NONE',  ( 3.491481338843133355E-15, -1.224646799147353207E-16, 1.000000000000000000 ) ) ;
#28 = APPROVAL_STATUS ( 'not_yet_approved' ) ;
#29 = CIRCLE ( 'NONE', #225, 0.6250000000000000000 ) ;
#30 = VECTOR ( 'NONE', #121, 1000.000000000000000 ) ;
#31 = VERTEX_POINT ( 'NONE', #99 ) ;
#32 = CALENDAR_DATE ( 2021, 3, 9 ) ;
#33 = ORIENTED_EDGE ( 'NONE', *, *, #333, .F. ) ;
#34 = UNCERTAINTY_MEASURE_WITH_UNIT (LENGTH_MEASURE( 1.000000000000000082E-05 ), #45, 'distance_accuracy_value', 'NONE');
#35 = DIRECTION ( 'NONE',  ( 0.0000000000000000000, 1.000000000000000000, 0.0000000000000000000 ) ) ;
#36 = EDGE_CURVE ( 'NONE', #318, #295, #164, .T. ) ;
#37 = DIRECTION ( 'NONE',  ( 3.491481338843133355E-15, -1.224646799147353207E-16, 1.000000000000000000 ) ) ;
#38 = CARTESIAN_POINT ( 'NONE',  ( 1.326762908760390423E-13, -4.653657836759941941E-15, 38.00000000000000000 ) ) ;
#39 = ORIENTED_EDGE ( 'NONE', *, *, #36, .T. ) ;
#40 = ORGANIZATION ( 'UNSPECIFIED', 'UNSPECIFIED', '' ) ;
#41 = DIRECTION ( 'NONE',  ( 4.668921077302415797E-31, 1.000000000000000000, 1.314184451497588408E-16 ) ) ;
#42 = ORIENTED_EDGE ( 'NONE', *, *, #184, .T. ) ;
#43 = ADVANCED_FACE ( 'NONE', ( #21 ), #130, .F. ) ;
#44 = DIRECTION ( 'NONE',  ( 4.275831445896958607E-31, 1.000000000000000000, 1.224646799147353207E-16 ) ) ;
#45 =( LENGTH_UNIT ( ) NAMED_UNIT ( * ) SI_UNIT ( .MILLI., .METRE. ) );
#46 = AXIS2_PLACEMENT_3D ( 'NONE', #275, #147, #41 ) ;
#47 = DATE_AND_TIME ( #15, #20 ) ;
#48 = AXIS2_PLACEMENT_3D ( 'NONE', #178, #149, #278 ) ;
#49 = CC_DESIGN_PERSON_AND_ORGANIZATION_ASSIGNMENT ( #201, #282, ( #256 ) ) ;
#50 = CARTESIAN_POINT ( 'NONE',  ( 0.0000000000000000000, 0.0000000000000000000, 0.0000000000000000000 ) ) ;
#51 = PERSON_AND_ORGANIZATION ( #154, #40 ) ;
#52 = LINE ( 'NONE', #191, #173 ) ;
#53 = ADVANCED_FACE ( 'NONE', ( #78 ), #255, .T. ) ;
#54 = FACE_OUTER_BOUND ( 'NONE', #67, .T. ) ;
#55 = MANIFOLD_SOLID_BREP ( 'Corps-Déplacer/Copier1[2]', #240 ) ;
#56 = CARTESIAN_POINT ( 'NONE',  ( 1.730762251828888944E-15, -6.070696779062874074E-17, 0.4957100106977399001 ) ) ;
#57 = VERTEX_POINT ( 'NONE', #86 ) ;
#58 = LINE ( 'NONE', #305, #80 ) ;
#59 = APPROVAL_ROLE ( '' ) ;
#60 = CONICAL_SURFACE ( 'NONE', #87, 0.6250000000000000000, 0.7853981633974512766 ) ;
#61 = CARTESIAN_POINT ( 'NONE',  ( 1.730762251828888944E-15, -6.070696779062874074E-17, 0.4957100106977399001 ) ) ;
#62 = ORIENTED_EDGE ( 'NONE', *, *, #69, .F. ) ;
#63 = EDGE_CURVE ( 'NONE', #94, #301, #324, .T. ) ;
#64 = FACE_OUTER_BOUND ( 'NONE', #194, .T. ) ;
#65 = ORIENTED_EDGE ( 'NONE', *, *, #333, .T. ) ;
#66 = FACE_OUTER_BOUND ( 'NONE', #276, .T. ) ;
#67 = EDGE_LOOP ( 'NONE', ( #71, #293, #264, #33 ) ) ;
#68 = LINE ( 'NONE', #12, #30 ) ;
#69 = EDGE_CURVE ( 'NONE', #170, #243, #29, .T. ) ;
#70 = AXIS2_PLACEMENT_3D ( 'NONE', #263, #203, #286 ) ;
#71 = ORIENTED_EDGE ( 'NONE', *, *, #230, .T. ) ;
#72 = AXIS2_PLACEMENT_3D ( 'NONE', #266, #334, #24 ) ;
#73 = DIRECTION ( 'NONE',  ( -3.491481338843133355E-15, 1.224646799147353207E-16, -1.000000000000000000 ) ) ;
#74 = ORIENTED_EDGE ( 'NONE', *, *, #23, .F. ) ;
#75 = CARTESIAN_POINT ( 'NONE',  ( 1.730762251828888550E-15, -0.8249999999999955147, 0.4957100106977397891 ) ) ;
#76 = EDGE_CURVE ( 'NONE', #94, #295, #58, .T. ) ;
#77 = SECURITY_CLASSIFICATION_LEVEL ( 'unclassified' ) ;
#78 = FACE_OUTER_BOUND ( 'NONE', #190, .T. ) ;
#79 = APPROVAL_STATUS ( 'not_yet_approved' ) ;
#80 = VECTOR ( 'NONE', #135, 1000.000000000000000 ) ;
#81 = COORDINATED_UNIVERSAL_TIME_OFFSET ( 1, 0, .AHEAD. ) ;
#82 = APPLICATION_CONTEXT ( 'configuration controlled 3d designs of mechanical parts and assemblies' ) ;
#83 = AXIS2_PLACEMENT_3D ( 'NONE', #133, #111, #35 ) ;
#84 = DIRECTION ( 'NONE',  ( 0.0000000000000000000, 1.000000000000000000, 0.0000000000000000000 ) ) ;
#85 = ADVANCED_FACE ( 'NONE', ( #265 ), #188, .T. ) ;
#86 = CARTESIAN_POINT ( 'NONE',  ( 3.142333204958820020E-14, 0.8249999999999952927, 9.000000000000000000 ) ) ;
#87 = AXIS2_PLACEMENT_3D ( 'NONE', #38, #123, #179 ) ;
#88 = CARTESIAN_POINT ( 'NONE',  ( 3.142333204958820020E-14, -1.102182119232617714E-15, 9.000000000000000000 ) ) ;
#89 = DATE_AND_TIME ( #134, #132 ) ;
#90 = FACE_OUTER_BOUND ( 'NONE', #213, .T. ) ;
#91 = DATE_TIME_ROLE ( 'creation_date' ) ;
#92 = APPLICATION_PROTOCOL_DEFINITION ( 'international standard', 'config_control_design', 1994, #82 ) ;
#93 = DIRECTION ( 'NONE',  ( 0.0000000000000000000, 1.000000000000000000, 0.0000000000000000000 ) ) ;
#94 = VERTEX_POINT ( 'NONE', #238 ) ;
#95 = DIRECTION ( 'NONE',  ( 0.0000000000000000000, 1.000000000000000000, 0.0000000000000000000 ) ) ;
#96 = ORIENTED_EDGE ( 'NONE', *, *, #157, .T. ) ;
#97 = CARTESIAN_POINT ( 'NONE',  ( 1.831795612758545126E-15, 0.8249999999999952927, 0.4957100106977400111 ) ) ;
#98 = AXIS2_PLACEMENT_3D ( 'NONE', #56, #287, #160 ) ;
#99 = CARTESIAN_POINT ( 'NONE',  ( 8.180169668985892463E-14, -0.8249999999999975131, 9.000000000000000000 ) ) ;
#100 = EDGE_CURVE ( 'NONE', #243, #199, #52, .T. ) ;
#101 = CARTESIAN_POINT ( 'NONE',  ( 1.319779946082704535E-13, -4.629164900776995227E-15, 37.79999999999999716 ) ) ;
#102 = VECTOR ( 'NONE', #314, 1000.000000000000000 ) ;
#103 = EDGE_CURVE ( 'NONE', #216, #31, #206, .T. ) ;
#104 = DIRECTION ( 'NONE',  ( 0.0000000000000000000, 1.000000000000000000, 0.0000000000000000000 ) ) ;
#105 = EDGE_CURVE ( 'NONE', #31, #57, #142, .T. ) ;
#106 = DIRECTION ( 'NONE',  ( 4.275831445896958607E-31, 1.000000000000000000, 1.224646799147353207E-16 ) ) ;
#107 = CARTESIAN_POINT ( 'NONE',  ( 1.010333609296560831E-16, -0.8249999999999982903, -1.010333609296567733E-16 ) ) ;
#108 = SECURITY_CLASSIFICATION ( '', '', #77 ) ;
#109 = MECHANICAL_CONTEXT ( 'NONE', #82, 'mechanical' ) ;
#110 = APPROVAL_DATE_TIME ( #153, #267 ) ;
#111 = DIRECTION ( 'NONE',  ( -3.491481338843133355E-15, 1.224646799147353207E-16, -1.000000000000000000 ) ) ;
#112 = ADVANCED_FACE ( 'NONE', ( #242 ), #1, .T. ) ;
#113 = DATE_AND_TIME ( #32, #304 ) ;
#114 = DIRECTION ( 'NONE',  ( -3.491481338843133355E-15, 1.224646799147353207E-16, -1.000000000000000000 ) ) ;
#115 = AXIS2_PLACEMENT_3D ( 'NONE', #116, #262, #106 ) ;
#116 = CARTESIAN_POINT ( 'NONE',  ( 0.0000000000000000000, 0.0000000000000000000, 0.0000000000000000000 ) ) ;
#117 = EDGE_LOOP ( 'NONE', ( #195, #172, #26, #311 ) ) ;
#118 = ADVANCED_FACE ( 'NONE', ( #156 ), #337, .T. ) ;
#119 = CARTESIAN_POINT ( 'NONE',  ( 1.327528313009857423E-13, -0.6250000000000046629, 38.00000000000000000 ) ) ;
#120 = ORIENTED_EDGE ( 'NONE', *, *, #279, .T. ) ;
#121 = DIRECTION ( 'NONE',  ( -3.491481338843133355E-15, 1.224646799147353207E-16, -1.000000000000000000 ) ) ;
#122 = DIRECTION ( 'NONE',  ( -3.491481338843133355E-15, 1.224646799147353207E-16, -1.000000000000000000 ) ) ;
#123 = DIRECTION ( 'NONE',  ( -3.491481338843133355E-15, 1.224646799147353207E-16, -1.000000000000000000 ) ) ;
#124 = CLOSED_SHELL ( 'NONE', ( #181, #177, #131, #126, #118, #43 ) ) ;
#125 = DIRECTION ( 'NONE',  ( -3.491481338843133355E-15, 1.224646799147353207E-16, -1.000000000000000000 ) ) ;
#126 = ADVANCED_FACE ( 'NONE', ( #90 ), #167, .T. ) ;
#127 = DIRECTION ( 'NONE',  ( 3.491481338843133355E-15, -1.224646799147353207E-16, 1.000000000000000000 ) ) ;
#128 = EDGE_CURVE ( 'NONE', #295, #196, #16, .T. ) ;
#129 = PERSON_AND_ORGANIZATION ( #154, #40 ) ;
#130 = PLANE ( 'NONE',  #70 ) ;
#131 = ADVANCED_FACE ( 'NONE', ( #64 ), #316, .F. ) ;
#132 = LOCAL_TIME ( 9, 21, 42.00000000000000000, #310 ) ;
#133 = CARTESIAN_POINT ( 'NONE',  ( 1.326762908760390423E-13, -4.653657836759941941E-15, 38.00000000000000000 ) ) ;
#134 = CALENDAR_DATE ( 2021, 3, 9 ) ;
#135 = DIRECTION ( 'NONE',  ( -3.491481338843133355E-15, 1.224646799147353207E-16, -1.000000000000000000 ) ) ;
#136 = CARTESIAN_POINT ( 'NONE',  ( 1.730762251828888550E-15, -0.8249999999999955147, 0.4957100106977397891 ) ) ;
#137 = VECTOR ( 'NONE', #326, 1000.000000000000114 ) ;
#138 = ORIENTED_EDGE ( 'NONE', *, *, #63, .F. ) ;
#139 = APPROVAL_ROLE ( '' ) ;
#140 = EDGE_LOOP ( 'NONE', ( #96, #120, #174, #169 ) ) ;
#141 = DIRECTION ( 'NONE',  ( -4.275831445896958607E-31, -1.000000000000000000, -1.224646799147353207E-16 ) ) ;
#142 = CIRCLE ( 'NONE', #193, 0.8249999999999964029 ) ;
#143 = DIRECTION ( 'NONE',  ( -3.491481338843133355E-15, 1.224646799147353207E-16, -1.000000000000000000 ) ) ;
#144 = ORIENTED_EDGE ( 'NONE', *, *, #128, .T. ) ;
#145 = CARTESIAN_POINT ( 'NONE',  ( 3.527560942864973028E-31, 0.8249999999999958478, 1.010333609296561324E-16 ) ) ;
#146 = CARTESIAN_POINT ( 'NONE',  ( 1.319779946082704535E-13, -4.629164900776995227E-15, 37.79999999999999716 ) ) ;
#147 = DIRECTION ( 'NONE',  ( -3.491481338843133355E-15, 1.224646799147353207E-16, -1.000000000000000000 ) ) ;
#148 = PERSON_AND_ORGANIZATION ( #154, #40 ) ;
#149 = DIRECTION ( 'NONE',  ( -3.491481338843133355E-15, 1.224646799147353207E-16, -1.000000000000000000 ) ) ;
#150 = DATE_AND_TIME ( #18, #180 ) ;
#151 = APPROVAL ( #28, 'UNSPECIFIED' ) ;
#152 = AXIS2_PLACEMENT_3D ( 'NONE', #250, #125, #44 ) ;
#153 = DATE_AND_TIME ( #331, #158 ) ;
#154 = PERSON ( 'UNSPECIFIED', 'UNSPECIFIED', 'UNSPECIFIED', ('UNSPECIFIED'), ('UNSPECIFIED'), ('UNSPECIFIED') ) ;
#155 = PERSON_AND_ORGANIZATION_ROLE ( 'creator' ) ;
#156 = FACE_OUTER_BOUND ( 'NONE', #117, .T. ) ;
#157 = EDGE_CURVE ( 'NONE', #243, #170, #312, .T. ) ;
#158 = LOCAL_TIME ( 9, 21, 42.00000000000000000, #285 ) ;
#159 = CYLINDRICAL_SURFACE ( 'NONE', #115, 0.8249999999999982903 ) ;
#160 = DIRECTION ( 'NONE',  ( -4.668921077302415797E-31, -1.000000000000000000, -1.314184451497588408E-16 ) ) ;
#161 = ORIENTED_EDGE ( 'NONE', *, *, #105, .T. ) ;
#162 = CC_DESIGN_DATE_AND_TIME_ASSIGNMENT ( #47, #204, ( #108 ) ) ;
#163 = PERSON_AND_ORGANIZATION ( #154, #40 ) ;
#164 = LINE ( 'NONE', #136, #228 ) ;
#165 = PERSON_AND_ORGANIZATION ( #154, #40 ) ;
#166 = AXIS2_PLACEMENT_3D ( 'NONE', #208, #27, #289 ) ;
#167 = CYLINDRICAL_SURFACE ( 'NONE', #252, 0.8249999999999982903 ) ;
#168 = AXIS2_PLACEMENT_3D ( 'NONE', #101, #73, #95 ) ;
#169 = ORIENTED_EDGE ( 'NONE', *, *, #100, .F. ) ;
#170 = VERTEX_POINT ( 'NONE', #8 ) ;
#171 = MANIFOLD_SOLID_BREP ( 'Corps-Déplacer/Copier1[1]', #124 ) ;
#172 = ORIENTED_EDGE ( 'NONE', *, *, #69, .T. ) ;
#173 = VECTOR ( 'NONE', #336, 1000.000000000000114 ) ;
#174 = ORIENTED_EDGE ( 'NONE', *, *, #230, .F. ) ;
#175 = CYLINDRICAL_SURFACE ( 'NONE', #152, 0.8249999999999958478 ) ;
#176 = ORIENTED_EDGE ( 'NONE', *, *, #157, .F. ) ;
#177 = ADVANCED_FACE ( 'NONE', ( #54 ), #159, .T. ) ;
#178 = CARTESIAN_POINT ( 'NONE',  ( 3.142333204958820020E-14, -1.102182119232617714E-15, 9.000000000000000000 ) ) ;
#179 = DIRECTION ( 'NONE',  ( 0.0000000000000000000, 1.000000000000000000, 0.0000000000000000000 ) ) ;
#180 = LOCAL_TIME ( 9, 21, 42.00000000000000000, #17 ) ;
#181 = ADVANCED_FACE ( 'NONE', ( #313 ), #60, .T. ) ;
#182 = AXIS2_PLACEMENT_3D ( 'NONE', #232, #283, #104 ) ;
#183 = AXIS2_PLACEMENT_3D ( 'NONE', #61, #215, #294 ) ;
#184 = EDGE_CURVE ( 'NONE', #318, #196, #223, .T. ) ;
#185 = DIRECTION ( 'NONE',  ( 4.275831445896958607E-31, 1.000000000000000000, 1.224646799147353207E-16 ) ) ;
#186 = AXIS2_PLACEMENT_3D ( 'NONE', #13, #122, #323 ) ;
#187 = CC_DESIGN_APPROVAL ( #151, ( #256 ) ) ;
#188 = PLANE ( 'NONE',  #166 ) ;
#189 = EDGE_CURVE ( 'NONE', #196, #295, #308, .T. ) ;
#190 = EDGE_LOOP ( 'NONE', ( #322, #39, #144 ) ) ;
#191 = CARTESIAN_POINT ( 'NONE',  ( 1.326762908760390423E-13, 0.6249999999999953371, 38.00000000000000000 ) ) ;
#192 = APPROVAL_DATE_TIME ( #113, #328 ) ;
#193 = AXIS2_PLACEMENT_3D ( 'NONE', #88, #291, #84 ) ;
#194 = EDGE_LOOP ( 'NONE', ( #221, #161 ) ) ;
#195 = ORIENTED_EDGE ( 'NONE', *, *, #279, .F. ) ;
#196 = VERTEX_POINT ( 'NONE', #302 ) ;
#197 = APPROVAL_PERSON_ORGANIZATION ( #4, #328, #59 ) ;
#198 = DIRECTION ( 'NONE',  ( 1.903218546456022717E-15, 0.8571673007021097801, 0.5150380749100585964 ) ) ;
#199 = VERTEX_POINT ( 'NONE', #270 ) ;
#200 =( NAMED_UNIT ( * ) PLANE_ANGLE_UNIT ( ) SI_UNIT ( $, .RADIAN. ) );
#201 = PERSON_AND_ORGANIZATION ( #154, #40 ) ;
#202 = CIRCLE ( 'NONE', #186, 0.8249999999999964029 ) ;
#203 = DIRECTION ( 'NONE',  ( -3.491481338843133355E-15, 1.224646799147353207E-16, -1.000000000000000000 ) ) ;
#204 = DATE_TIME_ROLE ( 'classification_date' ) ;
#205 = PRODUCT_RELATED_PRODUCT_CATEGORY ( 'detail', '', ( #212 ) ) ;
#206 = LINE ( 'NONE', #107, #102 ) ;
#207 = PERSON_AND_ORGANIZATION_ROLE ( 'design_owner' ) ;
#208 = CARTESIAN_POINT ( 'NONE',  ( 3.142333204958820020E-14, 6.186509103480118842E-33, 9.000000000000000000 ) ) ;
#209 = ORIENTED_EDGE ( 'NONE', *, *, #103, .F. ) ;
#210 = CC_DESIGN_DATE_AND_TIME_ASSIGNMENT ( #89, #91, ( #284 ) ) ;
#211 =( GEOMETRIC_REPRESENTATION_CONTEXT ( 3 ) GLOBAL_UNCERTAINTY_ASSIGNED_CONTEXT ( ( #34 ) ) GLOBAL_UNIT_ASSIGNED_CONTEXT ( ( #45, #200, #237 ) ) REPRESENTATION_CONTEXT ( 'NONE', 'WORKASPACE' ) );
#212 = PRODUCT ( '269', '269', '', ( #109 ) ) ;
#213 = EDGE_LOOP ( 'NONE', ( #209, #247, #65, #317 ) ) ;
#214 = COORDINATED_UNIVERSAL_TIME_OFFSET ( 1, 0, .AHEAD. ) ;
#215 = DIRECTION ( 'NONE',  ( -3.491481338843133355E-15, 1.224646799147353207E-16, -1.000000000000000000 ) ) ;
#216 = VERTEX_POINT ( 'NONE', #226 ) ;
#217 = APPROVAL_PERSON_ORGANIZATION ( #129, #267, #229 ) ;
#218 = EDGE_LOOP ( 'NONE', ( #74, #138 ) ) ;
#219 = DESIGN_CONTEXT ( 'detailed design', #303, 'design' ) ;
#220 = CARTESIAN_POINT ( 'NONE',  ( 3.142333204958820020E-14, 0.8249999999999952927, 9.000000000000000000 ) ) ;
#221 = ORIENTED_EDGE ( 'NONE', *, *, #292, .T. ) ;
#222 = CC_DESIGN_PERSON_AND_ORGANIZATION_ASSIGNMENT ( #307, #306, ( #108 ) ) ;
#223 = LINE ( 'NONE', #97, #325 ) ;
#224 = DIRECTION ( 'NONE',  ( -3.491481338843133355E-15, 1.224646799147353207E-16, -1.000000000000000000 ) ) ;
#225 = AXIS2_PLACEMENT_3D ( 'NONE', #261, #257, #19 ) ;
#226 = CARTESIAN_POINT ( 'NONE',  ( 8.180169668985876055E-14, -0.8250000000000047296, 37.79999999999999716 ) ) ;
#227 = DIRECTION ( 'NONE',  ( -4.668921077302415797E-31, -1.000000000000000000, -1.314184451497588408E-16 ) ) ;
#228 = VECTOR ( 'NONE', #235, 1000.000000000000000 ) ;
#229 = APPROVAL_ROLE ( '' ) ;
#230 = EDGE_CURVE ( 'NONE', #199, #216, #274, .T. ) ;
#231 = ADVANCED_BREP_SHAPE_REPRESENTATION ( '269', ( #171, #55, #72 ), #211 ) ;
#232 = CARTESIAN_POINT ( 'NONE',  ( 3.142333204958820020E-14, -1.102182119232617714E-15, 9.000000000000000000 ) ) ;
#233 = CIRCLE ( 'NONE', #48, 0.8249999999999964029 ) ;
#234 = APPROVAL_STATUS ( 'not_yet_approved' ) ;
#235 = DIRECTION ( 'NONE',  ( 1.798245827342160317E-15, -0.8571673007021098911, 0.5150380749100582634 ) ) ;
#236 = ADVANCED_FACE ( 'NONE', ( #14 ), #288, .T. ) ;
#237 =( NAMED_UNIT ( * ) SI_UNIT ( $, .STERADIAN. ) SOLID_ANGLE_UNIT ( ) );
#238 = CARTESIAN_POINT ( 'NONE',  ( 1.667808051163818458E-14, -0.8249999999999974021, 9.000000000000000000 ) ) ;
#239 = ORIENTED_EDGE ( 'NONE', *, *, #258, .F. ) ;
#240 = CLOSED_SHELL ( 'NONE', ( #112, #236, #53, #296, #85 ) ) ;
#241 = CC_DESIGN_SECURITY_CLASSIFICATION ( #108, ( #256 ) ) ;
#242 = FACE_OUTER_BOUND ( 'NONE', #245, .T. ) ;
#243 = VERTEX_POINT ( 'NONE', #298 ) ;
#244 = APPLICATION_PROTOCOL_DEFINITION ( 'international standard', 'config_control_design', 1994, #303 ) ;
#245 = EDGE_LOOP ( 'NONE', ( #290, #9, #3, #239 ) ) ;
#246 = DIRECTION ( 'NONE',  ( -3.491481338843133355E-15, 1.224646799147353207E-16, -1.000000000000000000 ) ) ;
#247 = ORIENTED_EDGE ( 'NONE', *, *, #6, .T. ) ;
#248 = LINE ( 'NONE', #119, #137 ) ;
#249 = EDGE_LOOP ( 'NONE', ( #7, #42, #272 ) ) ;
#250 = CARTESIAN_POINT ( 'NONE',  ( 0.0000000000000000000, 0.0000000000000000000, 0.0000000000000000000 ) ) ;
#251 = DIRECTION ( 'NONE',  ( 0.0000000000000000000, 1.000000000000000000, 0.0000000000000000000 ) ) ;
#252 = AXIS2_PLACEMENT_3D ( 'NONE', #5, #114, #2 ) ;
#253 = AXIS2_PLACEMENT_3D ( 'NONE', #281, #127, #227 ) ;
#254 = PERSON_AND_ORGANIZATION_ROLE ( 'design_supplier' ) ;
#255 = CONICAL_SURFACE ( 'NONE', #98, 0.8249999999999954037, 1.029744258676649649 ) ;
#256 = PRODUCT_DEFINITION_FORMATION_WITH_SPECIFIED_SOURCE ( 'ANY', '', #212, .NOT_KNOWN. ) ;
#257 = DIRECTION ( 'NONE',  ( -3.491481338843133355E-15, 1.224646799147353207E-16, -1.000000000000000000 ) ) ;
#258 = EDGE_CURVE ( 'NONE', #301, #196, #277, .T. ) ;
#259 = CIRCLE ( 'NONE', #273, 0.8249999999999999556 ) ;
#260 = CC_DESIGN_APPROVAL ( #328, ( #284 ) ) ;
#261 = CARTESIAN_POINT ( 'NONE',  ( 1.326762908760390423E-13, -4.653657836759941941E-15, 38.00000000000000000 ) ) ;
#262 = DIRECTION ( 'NONE',  ( -3.491481338843133355E-15, 1.224646799147353207E-16, -1.000000000000000000 ) ) ;
#263 = CARTESIAN_POINT ( 'NONE',  ( 1.326762908760390423E-13, 4.686749320818235233E-33, 38.00000000000000000 ) ) ;
#264 = ORIENTED_EDGE ( 'NONE', *, *, #292, .F. ) ;
#265 = FACE_OUTER_BOUND ( 'NONE', #218, .T. ) ;
#266 = CARTESIAN_POINT ( 'NONE',  ( 0.0000000000000000000, 0.0000000000000000000, 0.0000000000000000000 ) ) ;
#267 = APPROVAL ( #79, 'UNSPECIFIED' ) ;
#268 = ORIENTED_EDGE ( 'NONE', *, *, #76, .F. ) ;
#269 = CARTESIAN_POINT ( 'NONE',  ( 3.142333204958820020E-14, 6.186509103480118842E-33, 9.000000000000000000 ) ) ;
#270 = CARTESIAN_POINT ( 'NONE',  ( 1.319779946082704535E-13, 0.8249999999999952927, 37.79999999999999716 ) ) ;
#271 = CC_DESIGN_PERSON_AND_ORGANIZATION_ASSIGNMENT ( #51, #155, ( #284 ) ) ;
#272 = ORIENTED_EDGE ( 'NONE', *, *, #189, .T. ) ;
#273 = AXIS2_PLACEMENT_3D ( 'NONE', #146, #224, #251 ) ;
#274 = CIRCLE ( 'NONE', #168, 0.8249999999999999556 ) ;
#275 = CARTESIAN_POINT ( 'NONE',  ( 1.730762251828888944E-15, -6.070696779062874074E-17, 0.4957100106977399001 ) ) ;
#276 = EDGE_LOOP ( 'NONE', ( #268, #11, #297, #320 ) ) ;
#277 = LINE ( 'NONE', #145, #280 ) ;
#278 = DIRECTION ( 'NONE',  ( 0.0000000000000000000, 1.000000000000000000, 0.0000000000000000000 ) ) ;
#279 = EDGE_CURVE ( 'NONE', #170, #216, #248, .T. ) ;
#280 = VECTOR ( 'NONE', #143, 1000.000000000000000 ) ;
#281 = CARTESIAN_POINT ( 'NONE',  ( 1.730762251828888944E-15, -6.070696779062874074E-17, 0.4957100106977399001 ) ) ;
#282 = PERSON_AND_ORGANIZATION_ROLE ( 'creator' ) ;
#283 = DIRECTION ( 'NONE',  ( -3.491481338843133355E-15, 1.224646799147353207E-16, -1.000000000000000000 ) ) ;
#284 = PRODUCT_DEFINITION ( 'UNKNOWN', '', #256, #219 ) ;
#285 = COORDINATED_UNIVERSAL_TIME_OFFSET ( 1, 0, .AHEAD. ) ;
#286 = DIRECTION ( 'NONE',  ( 4.275831445896958607E-31, 1.000000000000000000, 1.224646799147353207E-16 ) ) ;
#287 = DIRECTION ( 'NONE',  ( 3.491481338843133355E-15, -1.224646799147353207E-16, 1.000000000000000000 ) ) ;
#288 = CONICAL_SURFACE ( 'NONE', #253, 0.8249999999999954037, 1.029744258676649649 ) ;
#289 = DIRECTION ( 'NONE',  ( -4.275831445896958607E-31, -1.000000000000000000, -1.224646799147353207E-16 ) ) ;
#290 = ORIENTED_EDGE ( 'NONE', *, *, #23, .T. ) ;
#291 = DIRECTION ( 'NONE',  ( -3.491481338843133355E-15, 1.224646799147353207E-16, -1.000000000000000000 ) ) ;
#292 = EDGE_CURVE ( 'NONE', #57, #31, #233, .T. ) ;
#293 = ORIENTED_EDGE ( 'NONE', *, *, #103, .T. ) ;
#294 = DIRECTION ( 'NONE',  ( 4.668921077302415797E-31, 1.000000000000000000, 1.314184451497588408E-16 ) ) ;
#295 = VERTEX_POINT ( 'NONE', #75 ) ;
#296 = ADVANCED_FACE ( 'NONE', ( #66 ), #175, .T. ) ;
#297 = ORIENTED_EDGE ( 'NONE', *, *, #258, .T. ) ;
#298 = CARTESIAN_POINT ( 'NONE',  ( 1.326762908760390423E-13, 0.6249999999999953371, 38.00000000000000000 ) ) ;
#299 = EDGE_LOOP ( 'NONE', ( #176, #62 ) ) ;
#300 = AXIS2_PLACEMENT_3D ( 'NONE', #50, #309, #185 ) ;
#301 = VERTEX_POINT ( 'NONE', #220 ) ;
#302 = CARTESIAN_POINT ( 'NONE',  ( 1.831795612758545126E-15, 0.8249999999999952927, 0.4957100106977400111 ) ) ;
#303 = APPLICATION_CONTEXT ( 'configuration controlled 3d designs of mechanical parts and assemblies' ) ;
#304 = LOCAL_TIME ( 9, 21, 42.00000000000000000, #214 ) ;
#305 = CARTESIAN_POINT ( 'NONE',  ( 1.010333609296557873E-16, -0.8249999999999958478, -1.010333609296564775E-16 ) ) ;
#306 = PERSON_AND_ORGANIZATION_ROLE ( 'classification_officer' ) ;
#307 = PERSON_AND_ORGANIZATION ( #154, #40 ) ;
#308 = CIRCLE ( 'NONE', #46, 0.8249999999999954037 ) ;
#309 = DIRECTION ( 'NONE',  ( -3.491481338843133355E-15, 1.224646799147353207E-16, -1.000000000000000000 ) ) ;
#310 = COORDINATED_UNIVERSAL_TIME_OFFSET ( 1, 0, .AHEAD. ) ;
#311 = ORIENTED_EDGE ( 'NONE', *, *, #6, .F. ) ;
#312 = CIRCLE ( 'NONE', #332, 0.6250000000000000000 ) ;
#313 = FACE_OUTER_BOUND ( 'NONE', #140, .T. ) ;
#314 = DIRECTION ( 'NONE',  ( -3.491481338843133355E-15, 1.224646799147353207E-16, -1.000000000000000000 ) ) ;
#315 = PRODUCT_DEFINITION_SHAPE ( 'NONE', 'NONE',  #284 ) ;
#316 = PLANE ( 'NONE',  #329 ) ;
#317 = ORIENTED_EDGE ( 'NONE', *, *, #105, .F. ) ;
#318 = VERTEX_POINT ( 'NONE', #321 ) ;
#319 = APPROVAL_PERSON_ORGANIZATION ( #165, #151, #139 ) ;
#320 = ORIENTED_EDGE ( 'NONE', *, *, #128, .F. ) ;
#321 = CARTESIAN_POINT ( 'NONE',  ( 0.0000000000000000000, 0.0000000000000000000, 0.0000000000000000000 ) ) ;
#322 = ORIENTED_EDGE ( 'NONE', *, *, #184, .F. ) ;
#323 = DIRECTION ( 'NONE',  ( 0.0000000000000000000, 1.000000000000000000, 0.0000000000000000000 ) ) ;
#324 = CIRCLE ( 'NONE', #182, 0.8249999999999964029 ) ;
#325 = VECTOR ( 'NONE', #198, 999.9999999999998863 ) ;
#326 = DIRECTION ( 'NONE',  ( -2.382254525458708792E-15, -0.7071067811865495711, -0.7071067811865455743 ) ) ;
#327 = CC_DESIGN_PERSON_AND_ORGANIZATION_ASSIGNMENT ( #148, #254, ( #256 ) ) ;
#328 = APPROVAL ( #234, 'UNSPECIFIED' ) ;
#329 = AXIS2_PLACEMENT_3D ( 'NONE', #269, #37, #141 ) ;
#330 = APPROVAL_DATE_TIME ( #150, #151 ) ;
#331 = CALENDAR_DATE ( 2021, 3, 9 ) ;
#332 = AXIS2_PLACEMENT_3D ( 'NONE', #22, #246, #93 ) ;
#333 = EDGE_CURVE ( 'NONE', #199, #57, #68, .T. ) ;
#334 = DIRECTION ( 'NONE',  ( 0.0000000000000000000, 0.0000000000000000000, 1.000000000000000000 ) ) ;
#335 = CC_DESIGN_PERSON_AND_ORGANIZATION_ASSIGNMENT ( #163, #207, ( #212 ) ) ;
#336 = DIRECTION ( 'NONE',  ( -2.468850131082257455E-15, 0.7071067811865497932, -0.7071067811865453523 ) ) ;
#337 = CONICAL_SURFACE ( 'NONE', #83, 0.6250000000000000000, 0.7853981633974512766 ) ;
ENDSEC;
END-ISO-10303-21;
