ISO-10303-21;
HEADER;
FILE_DESCRIPTION (( 'STEP AP203' ),
    '1' );
FILE_NAME ('2689.step',
    '2021-12-06T12:58:36',
    ( '' ),
    ( '' ),
    'SwSTEP 2.0',
    'SolidWorks 2019',
    '' );
FILE_SCHEMA (( 'CONFIG_CONTROL_DESIGN' ));
ENDSEC;

DATA;
#1 = ORIENTED_EDGE ( 'NONE', *, *, #121, .T. ) ;
#2 = ORIENTED_EDGE ( 'NONE', *, *, #71, .F. ) ;
#3 = FACE_OUTER_BOUND ( 'NONE', #96, .T. ) ;
#4 = APPLICATION_CONTEXT ( 'configuration controlled 3d designs of mechanical parts and assemblies' ) ;
#5 = LOCAL_TIME ( 13, 58, 36.00000000000000000, #65 ) ;
#6 = PLANE ( 'NONE',  #118 ) ;
#7 = LOCAL_TIME ( 13, 58, 36.00000000000000000, #81 ) ;
#8 = PRODUCT ( '2689', '2689', '', ( #33 ) ) ;
#9 = PERSON_AND_ORGANIZATION ( #109, #140 ) ;
#10 = APPROVAL_DATE_TIME ( #77, #135 ) ;
#11 = EDGE_LOOP ( 'NONE', ( #55 ) ) ;
#12 = EDGE_CURVE ( 'NONE', #19, #19, #156, .T. ) ;
#13 = MANIFOLD_SOLID_BREP ( 'Corps-Déplacer/Copier1', #159 ) ;
#14 = APPROVAL_DATE_TIME ( #141, #84 ) ;
#15 = CARTESIAN_POINT ( 'NONE',  ( 0.0000000000000000000, 0.0000000000000000000, 0.0000000000000000000 ) ) ;
#16 = AXIS2_PLACEMENT_3D ( 'NONE', #94, #147, #144 ) ;
#17 = CC_DESIGN_SECURITY_CLASSIFICATION ( #105, ( #35 ) ) ;
#18 = CIRCLE ( 'NONE', #102, 2.500000000000000444 ) ;
#19 = VERTEX_POINT ( 'NONE', #137 ) ;
#20 = APPROVAL_ROLE ( '' ) ;
#21 = CC_DESIGN_PERSON_AND_ORGANIZATION_ASSIGNMENT ( #9, #124, ( #35 ) ) ;
#22 = COORDINATED_UNIVERSAL_TIME_OFFSET ( 1, 0, .AHEAD. ) ;
#23 = ADVANCED_BREP_SHAPE_REPRESENTATION ( '2689', ( #13, #145 ), #136 ) ;
#24 = DIRECTION ( 'NONE',  ( -3.491481338843133355E-15, 1.224646799147352468E-16, -1.000000000000000000 ) ) ;
#25 = SHAPE_DEFINITION_REPRESENTATION ( #78, #23 ) ;
#26 = CIRCLE ( 'NONE', #16, 10.00000000000000178 ) ;
#27 = ADVANCED_FACE ( 'NONE', ( #39, #54 ), #85, .T. ) ;
#28 = FACE_OUTER_BOUND ( 'NONE', #148, .T. ) ;
#29 = DESIGN_CONTEXT ( 'detailed design', #4, 'design' ) ;
#30 = CC_DESIGN_DATE_AND_TIME_ASSIGNMENT ( #128, #115, ( #105 ) ) ;
#31 = DIRECTION ( 'NONE',  ( 1.000000000000000000, 0.0000000000000000000, 0.0000000000000000000 ) ) ;
#32 = COORDINATED_UNIVERSAL_TIME_OFFSET ( 1, 0, .AHEAD. ) ;
#33 = MECHANICAL_CONTEXT ( 'NONE', #53, 'mechanical' ) ;
#34 = CARTESIAN_POINT ( 'NONE',  ( -1.603436792211359171E-30, 2.500000000000000444, -4.592425496802572986E-16 ) ) ;
#35 = PRODUCT_DEFINITION_FORMATION_WITH_SPECIFIED_SOURCE ( 'ANY', '', #8, .NOT_KNOWN. ) ;
#36 = VERTEX_POINT ( 'NONE', #88 ) ;
#37 = PRODUCT_RELATED_PRODUCT_CATEGORY ( 'detail', '', ( #8 ) ) ;
#38 = PERSON_AND_ORGANIZATION ( #109, #140 ) ;
#39 = FACE_BOUND ( 'NONE', #83, .T. ) ;
#40 = EDGE_LOOP ( 'NONE', ( #117 ) ) ;
#41 = CIRCLE ( 'NONE', #98, 2.500000000000002220 ) ;
#42 = CC_DESIGN_PERSON_AND_ORGANIZATION_ASSIGNMENT ( #164, #48, ( #56 ) ) ;
#43 = DIRECTION ( 'NONE',  ( -3.491481338843133355E-15, 1.224646799147352468E-16, -1.000000000000000000 ) ) ;
#44 = CC_DESIGN_APPROVAL ( #135, ( #35 ) ) ;
#45 = APPROVAL_PERSON_ORGANIZATION ( #38, #84, #80 ) ;
#46 = AXIS2_PLACEMENT_3D ( 'NONE', #15, #70, #119 ) ;
#47 = CC_DESIGN_PERSON_AND_ORGANIZATION_ASSIGNMENT ( #154, #68, ( #105 ) ) ;
#48 = PERSON_AND_ORGANIZATION_ROLE ( 'creator' ) ;
#49 = DATE_TIME_ROLE ( 'creation_date' ) ;
#50 = PERSON_AND_ORGANIZATION_ROLE ( 'design_supplier' ) ;
#51 = CALENDAR_DATE ( 2021, 6, 12 ) ;
#52 = EDGE_LOOP ( 'NONE', ( #157 ) ) ;
#53 = APPLICATION_CONTEXT ( 'configuration controlled 3d designs of mechanical parts and assemblies' ) ;
#54 = FACE_OUTER_BOUND ( 'NONE', #40, .T. ) ;
#55 = ORIENTED_EDGE ( 'NONE', *, *, #121, .F. ) ;
#56 = PRODUCT_DEFINITION ( 'UNKNOWN', '', #35, #29 ) ;
#57 = CARTESIAN_POINT ( 'NONE',  ( 0.0000000000000000000, 0.0000000000000000000, 0.0000000000000000000 ) ) ;
#58 = CC_DESIGN_DATE_AND_TIME_ASSIGNMENT ( #126, #49, ( #56 ) ) ;
#59 = LOCAL_TIME ( 13, 58, 36.00000000000000000, #168 ) ;
#60 = PERSON_AND_ORGANIZATION_ROLE ( 'design_owner' ) ;
#61 = APPROVAL_STATUS ( 'not_yet_approved' ) ;
#62 = EDGE_CURVE ( 'NONE', #152, #152, #18, .T. ) ;
#63 = PERSON_AND_ORGANIZATION ( #109, #140 ) ;
#64 = APPLICATION_PROTOCOL_DEFINITION ( 'international standard', 'config_control_design', 1994, #53 ) ;
#65 = COORDINATED_UNIVERSAL_TIME_OFFSET ( 1, 0, .AHEAD. ) ;
#66 = CC_DESIGN_APPROVAL ( #130, ( #56 ) ) ;
#67 = DIRECTION ( 'NONE',  ( -4.275831445896955979E-31, -1.000000000000000000, -1.224646799147352468E-16 ) ) ;
#68 = PERSON_AND_ORGANIZATION_ROLE ( 'classification_officer' ) ;
#69 = APPROVAL_PERSON_ORGANIZATION ( #113, #130, #167 ) ;
#70 = DIRECTION ( 'NONE',  ( -3.491481338843133355E-15, 1.224646799147352468E-16, -1.000000000000000000 ) ) ;
#71 = EDGE_CURVE ( 'NONE', #36, #36, #26, .T. ) ;
#72 = FACE_OUTER_BOUND ( 'NONE', #129, .T. ) ;
#73 = UNCERTAINTY_MEASURE_WITH_UNIT (LENGTH_MEASURE( 1.000000000000000082E-05 ), #138, 'distance_accuracy_value', 'NONE');
#74 = CARTESIAN_POINT ( 'NONE',  ( 3.840629472727447480E-15, -1.347111479062087764E-16, 1.100000000000000089 ) ) ;
#75 = CARTESIAN_POINT ( 'NONE',  ( 3.840629472727448269E-15, 2.500000000000002220, 1.100000000000000311 ) ) ;
#76 = CALENDAR_DATE ( 2021, 6, 12 ) ;
#77 = DATE_AND_TIME ( #76, #59 ) ;
#78 = PRODUCT_DEFINITION_SHAPE ( 'NONE', 'NONE',  #56 ) ;
#79 = APPROVAL_DATE_TIME ( #91, #130 ) ;
#80 = APPROVAL_ROLE ( '' ) ;
#81 = COORDINATED_UNIVERSAL_TIME_OFFSET ( 1, 0, .AHEAD. ) ;
#82 = DIRECTION ( 'NONE',  ( 4.622231866529365172E-31, 1.000000000000000000, 1.301042606982605074E-16 ) ) ;
#83 = EDGE_LOOP ( 'NONE', ( #1 ) ) ;
#84 = APPROVAL ( #143, 'UNSPECIFIED' ) ;
#85 = PLANE ( 'NONE',  #87 ) ;
#86 = FACE_OUTER_BOUND ( 'NONE', #116, .T. ) ;
#87 = AXIS2_PLACEMENT_3D ( 'NONE', #107, #127, #67 ) ;
#88 = CARTESIAN_POINT ( 'NONE',  ( 0.0000000000000000000, 10.00000000000000178, 0.0000000000000000000 ) ) ;
#89 = AXIS2_PLACEMENT_3D ( 'NONE', #146, #24, #82 ) ;
#90 = CALENDAR_DATE ( 2021, 6, 12 ) ;
#91 = DATE_AND_TIME ( #101, #162 ) ;
#92 = ORIENTED_EDGE ( 'NONE', *, *, #71, .T. ) ;
#93 = ADVANCED_FACE ( 'NONE', ( #28, #86 ), #132, .T. ) ;
#94 = CARTESIAN_POINT ( 'NONE',  ( -4.275831445896956855E-30, 1.499759782661855856E-31, -1.224646799147352665E-15 ) ) ;
#95 = DIRECTION ( 'NONE',  ( -3.491481338843133355E-15, 1.224646799147352468E-16, -1.000000000000000000 ) ) ;
#96 = EDGE_LOOP ( 'NONE', ( #106 ) ) ;
#97 = DIRECTION ( 'NONE',  ( -3.491481338843133355E-15, 1.224646799147352468E-16, -1.000000000000000000 ) ) ;
#98 = AXIS2_PLACEMENT_3D ( 'NONE', #74, #43, #134 ) ;
#99 = ADVANCED_FACE ( 'NONE', ( #3, #161 ), #149, .F. ) ;
#100 = VERTEX_POINT ( 'NONE', #75 ) ;
#101 = CALENDAR_DATE ( 2021, 6, 12 ) ;
#102 = AXIS2_PLACEMENT_3D ( 'NONE', #131, #95, #108 ) ;
#103 = SECURITY_CLASSIFICATION_LEVEL ( 'unclassified' ) ;
#104 = CARTESIAN_POINT ( 'NONE',  ( 0.0000000000000000000, 2.500000000000000444, 0.0000000000000000000 ) ) ;
#105 = SECURITY_CLASSIFICATION ( '', '', #103 ) ;
#106 = ORIENTED_EDGE ( 'NONE', *, *, #62, .T. ) ;
#107 = CARTESIAN_POINT ( 'NONE',  ( 3.840629472727446691E-15, 2.500000000000002220, 1.099999999999999867 ) ) ;
#108 = DIRECTION ( 'NONE',  ( 4.275831445896955979E-31, 1.000000000000000000, 1.224646799147352468E-16 ) ) ;
#109 = PERSON ( 'UNSPECIFIED', 'UNSPECIFIED', 'UNSPECIFIED', ('UNSPECIFIED'), ('UNSPECIFIED'), ('UNSPECIFIED') ) ;
#110 = LOCAL_TIME ( 13, 58, 36.00000000000000000, #32 ) ;
#111 = CARTESIAN_POINT ( 'NONE',  ( 0.0000000000000000000, 0.0000000000000000000, 0.0000000000000000000 ) ) ;
#112 = PERSON_AND_ORGANIZATION ( #109, #140 ) ;
#113 = PERSON_AND_ORGANIZATION ( #109, #140 ) ;
#114 = AXIS2_PLACEMENT_3D ( 'NONE', #57, #97, #160 ) ;
#115 = DATE_TIME_ROLE ( 'classification_date' ) ;
#116 = EDGE_LOOP ( 'NONE', ( #2 ) ) ;
#117 = ORIENTED_EDGE ( 'NONE', *, *, #12, .F. ) ;
#118 = AXIS2_PLACEMENT_3D ( 'NONE', #34, #153, #155 ) ;
#119 = DIRECTION ( 'NONE',  ( 4.275831445896955979E-31, 1.000000000000000000, 1.224646799147352468E-16 ) ) ;
#120 = FACE_BOUND ( 'NONE', #52, .T. ) ;
#121 = EDGE_CURVE ( 'NONE', #100, #100, #41, .T. ) ;
#122 = DIRECTION ( 'NONE',  ( 0.0000000000000000000, 0.0000000000000000000, 1.000000000000000000 ) ) ;
#123 = APPLICATION_PROTOCOL_DEFINITION ( 'international standard', 'config_control_design', 1994, #4 ) ;
#124 = PERSON_AND_ORGANIZATION_ROLE ( 'creator' ) ;
#125 = PERSON_AND_ORGANIZATION ( #109, #140 ) ;
#126 = DATE_AND_TIME ( #90, #110 ) ;
#127 = DIRECTION ( 'NONE',  ( 3.491481338843133355E-15, -1.224646799147352468E-16, 1.000000000000000000 ) ) ;
#128 = DATE_AND_TIME ( #51, #5 ) ;
#129 = EDGE_LOOP ( 'NONE', ( #92 ) ) ;
#130 = APPROVAL ( #61, 'UNSPECIFIED' ) ;
#131 = CARTESIAN_POINT ( 'NONE',  ( -1.068957861474239214E-30, 3.749399456654639641E-32, -3.061616997868381662E-16 ) ) ;
#132 = CYLINDRICAL_SURFACE ( 'NONE', #46, 10.00000000000000178 ) ;
#133 = APPROVAL_PERSON_ORGANIZATION ( #112, #135, #20 ) ;
#134 = DIRECTION ( 'NONE',  ( 3.081487911019574737E-31, 1.000000000000000000, 8.673617379884028076E-17 ) ) ;
#135 = APPROVAL ( #165, 'UNSPECIFIED' ) ;
#136 =( GEOMETRIC_REPRESENTATION_CONTEXT ( 3 ) GLOBAL_UNCERTAINTY_ASSIGNED_CONTEXT ( ( #73 ) ) GLOBAL_UNIT_ASSIGNED_CONTEXT ( ( #138, #150, #139 ) ) REPRESENTATION_CONTEXT ( 'NONE', 'WORKASPACE' ) );
#137 = CARTESIAN_POINT ( 'NONE',  ( 3.840629472727447480E-15, 10.00000000000000178, 1.100000000000000089 ) ) ;
#138 =( LENGTH_UNIT ( ) NAMED_UNIT ( * ) SI_UNIT ( .MILLI., .METRE. ) );
#139 =( NAMED_UNIT ( * ) SI_UNIT ( $, .STERADIAN. ) SOLID_ANGLE_UNIT ( ) );
#140 = ORGANIZATION ( 'UNSPECIFIED', 'UNSPECIFIED', '' ) ;
#141 = DATE_AND_TIME ( #169, #7 ) ;
#142 = ORIENTED_EDGE ( 'NONE', *, *, #12, .T. ) ;
#143 = APPROVAL_STATUS ( 'not_yet_approved' ) ;
#144 = DIRECTION ( 'NONE',  ( 4.275831445896955979E-31, 1.000000000000000000, 1.224646799147352468E-16 ) ) ;
#145 = AXIS2_PLACEMENT_3D ( 'NONE', #111, #122, #31 ) ;
#146 = CARTESIAN_POINT ( 'NONE',  ( 3.840629472727442747E-15, -1.347111479062086038E-16, 1.099999999999998757 ) ) ;
#147 = DIRECTION ( 'NONE',  ( -3.491481338843133355E-15, 1.224646799147352468E-16, -1.000000000000000000 ) ) ;
#148 = EDGE_LOOP ( 'NONE', ( #142 ) ) ;
#149 = CYLINDRICAL_SURFACE ( 'NONE', #114, 2.500000000000001332 ) ;
#150 =( NAMED_UNIT ( * ) PLANE_ANGLE_UNIT ( ) SI_UNIT ( $, .RADIAN. ) );
#151 = ADVANCED_FACE ( 'NONE', ( #72, #120 ), #6, .T. ) ;
#152 = VERTEX_POINT ( 'NONE', #104 ) ;
#153 = DIRECTION ( 'NONE',  ( -3.491481338843133355E-15, 1.224646799147352468E-16, -1.000000000000000000 ) ) ;
#154 = PERSON_AND_ORGANIZATION ( #109, #140 ) ;
#155 = DIRECTION ( 'NONE',  ( 4.275831445896955979E-31, 1.000000000000000000, 1.224646799147352468E-16 ) ) ;
#156 = CIRCLE ( 'NONE', #89, 10.00000000000000178 ) ;
#157 = ORIENTED_EDGE ( 'NONE', *, *, #62, .F. ) ;
#158 = CC_DESIGN_PERSON_AND_ORGANIZATION_ASSIGNMENT ( #63, #50, ( #35 ) ) ;
#159 = CLOSED_SHELL ( 'NONE', ( #151, #93, #27, #99 ) ) ;
#160 = DIRECTION ( 'NONE',  ( 4.275831445896955979E-31, 1.000000000000000000, 1.224646799147352714E-16 ) ) ;
#161 = FACE_OUTER_BOUND ( 'NONE', #11, .T. ) ;
#162 = LOCAL_TIME ( 13, 58, 36.00000000000000000, #22 ) ;
#163 = CC_DESIGN_APPROVAL ( #84, ( #105 ) ) ;
#164 = PERSON_AND_ORGANIZATION ( #109, #140 ) ;
#165 = APPROVAL_STATUS ( 'not_yet_approved' ) ;
#166 = CC_DESIGN_PERSON_AND_ORGANIZATION_ASSIGNMENT ( #125, #60, ( #8 ) ) ;
#167 = APPROVAL_ROLE ( '' ) ;
#168 = COORDINATED_UNIVERSAL_TIME_OFFSET ( 1, 0, .AHEAD. ) ;
#169 = CALENDAR_DATE ( 2021, 6, 12 ) ;
ENDSEC;
END-ISO-10303-21;
