ISO-10303-21;
HEADER;
FILE_DESCRIPTION (( 'STEP AP203' ),
    '1' );
FILE_NAME ('26873.step',
    '2021-11-22T09:04:27',
    ( '' ),
    ( '' ),
    'SwSTEP 2.0',
    'SolidWorks 2019',
    '' );
FILE_SCHEMA (( 'CONFIG_CONTROL_DESIGN' ));
ENDSEC;

DATA;
#1 = CALENDAR_DATE ( 2021, 22, 11 ) ;
#2 = DATE_AND_TIME ( #109, #163 ) ;
#3 = EDGE_CURVE ( 'NONE', #66, #66, #144, .T. ) ;
#4 = AXIS2_PLACEMENT_3D ( 'NONE', #194, #115, #65 ) ;
#5 = LOCAL_TIME ( 10, 4, 27.00000000000000000, #169 ) ;
#6 = DIRECTION ( 'NONE',  ( 3.491481338843133355E-15, -1.224646799147353207E-16, 1.000000000000000000 ) ) ;
#7 = FACE_OUTER_BOUND ( 'NONE', #54, .T. ) ;
#8 = DIRECTION ( 'NONE',  ( 4.275831445896958607E-31, 1.000000000000000000, 1.224646799147353207E-16 ) ) ;
#9 = FACE_OUTER_BOUND ( 'NONE', #119, .T. ) ;
#10 = CARTESIAN_POINT ( 'NONE',  ( 2.597662116099291216E-13, 2.999999999999990674, 74.39999999999999147 ) ) ;
#11 = PRODUCT_DEFINITION ( 'UNKNOWN', '', #170, #103 ) ;
#12 = CIRCLE ( 'NONE', #42, 2.400000000000000355 ) ;
#13 = CARTESIAN_POINT ( 'NONE',  ( 0.0000000000000000000, 0.0000000000000000000, 0.0000000000000000000 ) ) ;
#14 = APPROVAL_ROLE ( '' ) ;
#15 = PERSON_AND_ORGANIZATION ( #78, #202 ) ;
#16 = DIRECTION ( 'NONE',  ( -3.491481338843133355E-15, 1.224646799147353207E-16, -1.000000000000000000 ) ) ;
#17 = CC_DESIGN_DATE_AND_TIME_ASSIGNMENT ( #2, #105, ( #11 ) ) ;
#18 = CARTESIAN_POINT ( 'NONE',  ( 2.618611004132350143E-13, 1.799711739194215719E-32, 75.00000000000000000 ) ) ;
#19 = DIRECTION ( 'NONE',  ( 4.275831445896959482E-31, 1.000000000000000000, 1.224646799147353207E-16 ) ) ;
#20 = CARTESIAN_POINT ( 'NONE',  ( 0.0000000000000000000, 0.0000000000000000000, 0.0000000000000000000 ) ) ;
#21 = ORIENTED_EDGE ( 'NONE', *, *, #152, .T. ) ;
#22 = APPROVAL_PERSON_ORGANIZATION ( #154, #106, #14 ) ;
#23 = UNCERTAINTY_MEASURE_WITH_UNIT (LENGTH_MEASURE( 1.000000000000000082E-05 ), #102, 'distance_accuracy_value', 'NONE');
#24 = APPLICATION_PROTOCOL_DEFINITION ( 'international standard', 'config_control_design', 1994, #134 ) ;
#25 = AXIS2_PLACEMENT_3D ( 'NONE', #79, #46, #127 ) ;
#26 = AXIS2_PLACEMENT_3D ( 'NONE', #18, #82, #8 ) ;
#27 = EDGE_CURVE ( 'NONE', #137, #137, #77, .T. ) ;
#28 = APPROVAL_ROLE ( '' ) ;
#29 = CIRCLE ( 'NONE', #160, 3.000000000000000000 ) ;
#30 = AXIS2_PLACEMENT_3D ( 'NONE', #34, #16, #51 ) ;
#31 = CARTESIAN_POINT ( 'NONE',  ( 8.728703347107833388E-14, -3.061616997868383043E-15, 25.00000000000000000 ) ) ;
#32 = PRODUCT_RELATED_PRODUCT_CATEGORY ( 'detail', '', ( #108 ) ) ;
#33 = DIRECTION ( 'NONE',  ( 4.275831445896959482E-31, 1.000000000000000000, 1.224646799147353207E-16 ) ) ;
#34 = CARTESIAN_POINT ( 'NONE',  ( -6.413747168845438786E-31, 2.249639673992786412E-32, -1.836970198721029934E-16 ) ) ;
#35 = CIRCLE ( 'NONE', #44, 3.000000000000000000 ) ;
#36 = ORIENTED_EDGE ( 'NONE', *, *, #157, .F. ) ;
#37 = CARTESIAN_POINT ( 'NONE',  ( 8.728703347107833388E-14, 2.999999999999996891, 25.00000000000000000 ) ) ;
#38 = CC_DESIGN_PERSON_AND_ORGANIZATION_ASSIGNMENT ( #15, #142, ( #170 ) ) ;
#39 = EDGE_LOOP ( 'NONE', ( #135 ) ) ;
#40 = ADVANCED_FACE ( 'NONE', ( #7, #162 ), #126, .T. ) ;
#41 = SECURITY_CLASSIFICATION_LEVEL ( 'unclassified' ) ;
#42 = AXIS2_PLACEMENT_3D ( 'NONE', #173, #99, #178 ) ;
#43 = DATE_TIME_ROLE ( 'classification_date' ) ;
#44 = AXIS2_PLACEMENT_3D ( 'NONE', #193, #161, #19 ) ;
#45 = PERSON_AND_ORGANIZATION ( #78, #202 ) ;
#46 = DIRECTION ( 'NONE',  ( 3.491481338843133355E-15, -1.224646799147353207E-16, 1.000000000000000000 ) ) ;
#47 = LOCAL_TIME ( 10, 4, 27.00000000000000000, #201 ) ;
#48 = FACE_OUTER_BOUND ( 'NONE', #101, .T. ) ;
#49 = CARTESIAN_POINT ( 'NONE',  ( 0.0000000000000000000, 0.0000000000000000000, 0.0000000000000000000 ) ) ;
#50 = ADVANCED_BREP_SHAPE_REPRESENTATION ( '26873', ( #129, #138, #80 ), #60 ) ;
#51 = DIRECTION ( 'NONE',  ( 4.275831445896958607E-31, 1.000000000000000000, 1.224646799147353207E-16 ) ) ;
#52 = CARTESIAN_POINT ( 'NONE',  ( 8.728703347107833388E-14, 2.249639673992781759E-32, 25.00000000000000000 ) ) ;
#53 = CC_DESIGN_APPROVAL ( #106, ( #170 ) ) ;
#54 = EDGE_LOOP ( 'NONE', ( #136 ) ) ;
#55 = CALENDAR_DATE ( 2021, 22, 11 ) ;
#56 = CC_DESIGN_APPROVAL ( #96, ( #11 ) ) ;
#57 = COORDINATED_UNIVERSAL_TIME_OFFSET ( 1, 0, .AHEAD. ) ;
#58 = APPROVAL_STATUS ( 'not_yet_approved' ) ;
#59 = APPROVAL_STATUS ( 'not_yet_approved' ) ;
#60 =( GEOMETRIC_REPRESENTATION_CONTEXT ( 3 ) GLOBAL_UNCERTAINTY_ASSIGNED_CONTEXT ( ( #23 ) ) GLOBAL_UNIT_ASSIGNED_CONTEXT ( ( #102, #196, #148 ) ) REPRESENTATION_CONTEXT ( 'NONE', 'WORKASPACE' ) );
#61 = ADVANCED_FACE ( 'NONE', ( #84 ), #95, .T. ) ;
#62 = PLANE ( 'NONE',  #25 ) ;
#63 = APPROVAL_PERSON_ORGANIZATION ( #45, #96, #110 ) ;
#64 = CARTESIAN_POINT ( 'NONE',  ( 2.597662116099291216E-13, -9.111372185656307013E-15, 74.39999999999999147 ) ) ;
#65 = DIRECTION ( 'NONE',  ( 0.0000000000000000000, 1.000000000000000000, 0.0000000000000000000 ) ) ;
#66 = VERTEX_POINT ( 'NONE', #132 ) ;
#67 = CARTESIAN_POINT ( 'NONE',  ( 2.618611004132350143E-13, 2.399999999999991029, 75.00000000000000000 ) ) ;
#68 = LOCAL_TIME ( 10, 4, 27.00000000000000000, #57 ) ;
#69 = CC_DESIGN_DATE_AND_TIME_ASSIGNMENT ( #186, #43, ( #73 ) ) ;
#70 = EDGE_LOOP ( 'NONE', ( #150 ) ) ;
#71 = DIRECTION ( 'NONE',  ( 0.0000000000000000000, 0.0000000000000000000, 1.000000000000000000 ) ) ;
#72 = SHAPE_DEFINITION_REPRESENTATION ( #122, #50 ) ;
#73 = SECURITY_CLASSIFICATION ( '', '', #41 ) ;
#74 = APPROVAL ( #58, 'UNSPECIFIED' ) ;
#75 = PERSON_AND_ORGANIZATION_ROLE ( 'creator' ) ;
#76 = PERSON_AND_ORGANIZATION ( #78, #202 ) ;
#77 = CIRCLE ( 'NONE', #4, 2.999999999999999556 ) ;
#78 = PERSON ( 'UNSPECIFIED', 'UNSPECIFIED', 'UNSPECIFIED', ('UNSPECIFIED'), ('UNSPECIFIED'), ('UNSPECIFIED') ) ;
#79 = CARTESIAN_POINT ( 'NONE',  ( 8.728703347107833388E-14, 2.249639673992781759E-32, 25.00000000000000000 ) ) ;
#80 = AXIS2_PLACEMENT_3D ( 'NONE', #13, #71, #93 ) ;
#81 = CC_DESIGN_PERSON_AND_ORGANIZATION_ASSIGNMENT ( #187, #184, ( #170 ) ) ;
#82 = DIRECTION ( 'NONE',  ( -3.491481338843133355E-15, 1.224646799147353207E-16, -1.000000000000000000 ) ) ;
#83 = DIRECTION ( 'NONE',  ( -4.275831445896958607E-31, -1.000000000000000000, -1.224646799147353207E-16 ) ) ;
#84 = FACE_OUTER_BOUND ( 'NONE', #118, .T. ) ;
#85 = EDGE_LOOP ( 'NONE', ( #21 ) ) ;
#86 = EDGE_LOOP ( 'NONE', ( #149 ) ) ;
#87 = AXIS2_PLACEMENT_3D ( 'NONE', #128, #145, #158 ) ;
#88 = DATE_AND_TIME ( #55, #68 ) ;
#89 = COORDINATED_UNIVERSAL_TIME_OFFSET ( 1, 0, .AHEAD. ) ;
#90 = APPLICATION_CONTEXT ( 'configuration controlled 3d designs of mechanical parts and assemblies' ) ;
#91 = CC_DESIGN_PERSON_AND_ORGANIZATION_ASSIGNMENT ( #123, #139, ( #73 ) ) ;
#92 = PERSON_AND_ORGANIZATION_ROLE ( 'design_owner' ) ;
#93 = DIRECTION ( 'NONE',  ( 1.000000000000000000, 0.0000000000000000000, 0.0000000000000000000 ) ) ;
#94 = CC_DESIGN_PERSON_AND_ORGANIZATION_ASSIGNMENT ( #76, #92, ( #108 ) ) ;
#95 = PLANE ( 'NONE',  #104 ) ;
#96 = APPROVAL ( #185, 'UNSPECIFIED' ) ;
#97 = FACE_BOUND ( 'NONE', #85, .T. ) ;
#98 = CC_DESIGN_APPROVAL ( #74, ( #73 ) ) ;
#99 = DIRECTION ( 'NONE',  ( -3.491481338843133355E-15, 1.224646799147353207E-16, -1.000000000000000000 ) ) ;
#100 = DIRECTION ( 'NONE',  ( -3.491481338843133355E-15, 1.224646799147353207E-16, -1.000000000000000000 ) ) ;
#101 = EDGE_LOOP ( 'NONE', ( #197 ) ) ;
#102 =( LENGTH_UNIT ( ) NAMED_UNIT ( * ) SI_UNIT ( .MILLI., .METRE. ) );
#103 = DESIGN_CONTEXT ( 'detailed design', #90, 'design' ) ;
#104 = AXIS2_PLACEMENT_3D ( 'NONE', #52, #6, #83 ) ;
#105 = DATE_TIME_ROLE ( 'creation_date' ) ;
#106 = APPROVAL ( #59, 'UNSPECIFIED' ) ;
#107 = COORDINATED_UNIVERSAL_TIME_OFFSET ( 1, 0, .AHEAD. ) ;
#108 = PRODUCT ( '26873', '26873', '', ( #155 ) ) ;
#109 = CALENDAR_DATE ( 2021, 22, 11 ) ;
#110 = APPROVAL_ROLE ( '' ) ;
#111 = PERSON_AND_ORGANIZATION ( #78, #202 ) ;
#112 = PLANE ( 'NONE',  #30 ) ;
#113 = DIRECTION ( 'NONE',  ( -3.491481338843133355E-15, 1.224646799147353207E-16, -1.000000000000000000 ) ) ;
#114 = DIRECTION ( 'NONE',  ( 4.275831445896959482E-31, 1.000000000000000000, 1.224646799147353207E-16 ) ) ;
#115 = DIRECTION ( 'NONE',  ( -3.491481338843133355E-15, 1.224646799147353207E-16, -1.000000000000000000 ) ) ;
#116 = CLOSED_SHELL ( 'NONE', ( #140, #166, #61 ) ) ;
#117 = ADVANCED_FACE ( 'NONE', ( #9 ), #62, .F. ) ;
#118 = EDGE_LOOP ( 'NONE', ( #36 ) ) ;
#119 = EDGE_LOOP ( 'NONE', ( #199 ) ) ;
#120 = EDGE_LOOP ( 'NONE', ( #181 ) ) ;
#121 = AXIS2_PLACEMENT_3D ( 'NONE', #49, #146, #114 ) ;
#122 = PRODUCT_DEFINITION_SHAPE ( 'NONE', 'NONE',  #11 ) ;
#123 = PERSON_AND_ORGANIZATION ( #78, #202 ) ;
#124 = APPROVAL_DATE_TIME ( #141, #96 ) ;
#125 = CC_DESIGN_SECURITY_CLASSIFICATION ( #73, ( #170 ) ) ;
#126 = CYLINDRICAL_SURFACE ( 'NONE', #195, 3.000000000000000000 ) ;
#127 = DIRECTION ( 'NONE',  ( -4.275831445896958607E-31, -1.000000000000000000, -1.224646799147353207E-16 ) ) ;
#128 = CARTESIAN_POINT ( 'NONE',  ( 8.728703347107833388E-14, -3.061616997868383043E-15, 25.00000000000000000 ) ) ;
#129 = MANIFOLD_SOLID_BREP ( 'Corps-Déplacer/Copier1[1]', #133 ) ;
#130 = FACE_OUTER_BOUND ( 'NONE', #164, .T. ) ;
#131 = ADVANCED_FACE ( 'NONE', ( #97, #189 ), #151, .T. ) ;
#132 = CARTESIAN_POINT ( 'NONE',  ( 8.728703347107833388E-14, 2.999999999999996891, 25.00000000000000000 ) ) ;
#133 = CLOSED_SHELL ( 'NONE', ( #117, #40, #131, #172 ) ) ;
#134 = APPLICATION_CONTEXT ( 'configuration controlled 3d designs of mechanical parts and assemblies' ) ;
#135 = ORIENTED_EDGE ( 'NONE', *, *, #3, .F. ) ;
#136 = ORIENTED_EDGE ( 'NONE', *, *, #27, .T. ) ;
#137 = VERTEX_POINT ( 'NONE', #10 ) ;
#138 = MANIFOLD_SOLID_BREP ( 'Corps-Déplacer/Copier1[2]', #116 ) ;
#139 = PERSON_AND_ORGANIZATION_ROLE ( 'classification_officer' ) ;
#140 = ADVANCED_FACE ( 'NONE', ( #48 ), #112, .T. ) ;
#141 = DATE_AND_TIME ( #167, #47 ) ;
#142 = PERSON_AND_ORGANIZATION_ROLE ( 'creator' ) ;
#143 = APPLICATION_PROTOCOL_DEFINITION ( 'international standard', 'config_control_design', 1994, #90 ) ;
#144 = CIRCLE ( 'NONE', #87, 3.000000000000000000 ) ;
#145 = DIRECTION ( 'NONE',  ( -3.491481338843133355E-15, 1.224646799147353207E-16, -1.000000000000000000 ) ) ;
#146 = DIRECTION ( 'NONE',  ( -3.491481338843133355E-15, 1.224646799147353207E-16, -1.000000000000000000 ) ) ;
#147 = FACE_OUTER_BOUND ( 'NONE', #70, .T. ) ;
#148 =( NAMED_UNIT ( * ) SI_UNIT ( $, .STERADIAN. ) SOLID_ANGLE_UNIT ( ) );
#149 = ORIENTED_EDGE ( 'NONE', *, *, #188, .F. ) ;
#150 = ORIENTED_EDGE ( 'NONE', *, *, #157, .T. ) ;
#151 = CONICAL_SURFACE ( 'NONE', #156, 2.999999999999999556, 0.7853981633974450594 ) ;
#152 = EDGE_CURVE ( 'NONE', #182, #182, #12, .T. ) ;
#153 = DATE_AND_TIME ( #200, #191 ) ;
#154 = PERSON_AND_ORGANIZATION ( #78, #202 ) ;
#155 = MECHANICAL_CONTEXT ( 'NONE', #134, 'mechanical' ) ;
#156 = AXIS2_PLACEMENT_3D ( 'NONE', #64, #100, #190 ) ;
#157 = EDGE_CURVE ( 'NONE', #198, #198, #29, .T. ) ;
#158 = DIRECTION ( 'NONE',  ( 0.0000000000000000000, 1.000000000000000000, 0.0000000000000000000 ) ) ;
#159 = CYLINDRICAL_SURFACE ( 'NONE', #121, 3.000000000000000000 ) ;
#160 = AXIS2_PLACEMENT_3D ( 'NONE', #31, #113, #175 ) ;
#161 = DIRECTION ( 'NONE',  ( -3.491481338843133355E-15, 1.224646799147353207E-16, -1.000000000000000000 ) ) ;
#162 = FACE_OUTER_BOUND ( 'NONE', #39, .T. ) ;
#163 = LOCAL_TIME ( 10, 4, 27.00000000000000000, #107 ) ;
#164 = EDGE_LOOP ( 'NONE', ( #183 ) ) ;
#165 = VERTEX_POINT ( 'NONE', #179 ) ;
#166 = ADVANCED_FACE ( 'NONE', ( #147, #192 ), #159, .T. ) ;
#167 = CALENDAR_DATE ( 2021, 22, 11 ) ;
#168 = PERSON_AND_ORGANIZATION ( #78, #202 ) ;
#169 = COORDINATED_UNIVERSAL_TIME_OFFSET ( 1, 0, .AHEAD. ) ;
#170 = PRODUCT_DEFINITION_FORMATION_WITH_SPECIFIED_SOURCE ( 'ANY', '', #108, .NOT_KNOWN. ) ;
#171 = APPROVAL_DATE_TIME ( #153, #74 ) ;
#172 = ADVANCED_FACE ( 'NONE', ( #130 ), #176, .F. ) ;
#173 = CARTESIAN_POINT ( 'NONE',  ( 2.618611004132350143E-13, -9.184850993605148733E-15, 75.00000000000000000 ) ) ;
#174 = APPROVAL_PERSON_ORGANIZATION ( #111, #74, #28 ) ;
#175 = DIRECTION ( 'NONE',  ( 0.0000000000000000000, 1.000000000000000000, 0.0000000000000000000 ) ) ;
#176 = PLANE ( 'NONE',  #26 ) ;
#177 = DIRECTION ( 'NONE',  ( -3.491481338843133355E-15, 1.224646799147353207E-16, -1.000000000000000000 ) ) ;
#178 = DIRECTION ( 'NONE',  ( 0.0000000000000000000, 1.000000000000000000, 0.0000000000000000000 ) ) ;
#179 = CARTESIAN_POINT ( 'NONE',  ( 0.0000000000000000000, 3.000000000000000000, 0.0000000000000000000 ) ) ;
#180 = CC_DESIGN_PERSON_AND_ORGANIZATION_ASSIGNMENT ( #168, #75, ( #11 ) ) ;
#181 = ORIENTED_EDGE ( 'NONE', *, *, #27, .F. ) ;
#182 = VERTEX_POINT ( 'NONE', #67 ) ;
#183 = ORIENTED_EDGE ( 'NONE', *, *, #152, .F. ) ;
#184 = PERSON_AND_ORGANIZATION_ROLE ( 'design_supplier' ) ;
#185 = APPROVAL_STATUS ( 'not_yet_approved' ) ;
#186 = DATE_AND_TIME ( #1, #5 ) ;
#187 = PERSON_AND_ORGANIZATION ( #78, #202 ) ;
#188 = EDGE_CURVE ( 'NONE', #165, #165, #35, .T. ) ;
#189 = FACE_OUTER_BOUND ( 'NONE', #120, .T. ) ;
#190 = DIRECTION ( 'NONE',  ( 0.0000000000000000000, 1.000000000000000000, 0.0000000000000000000 ) ) ;
#191 = LOCAL_TIME ( 10, 4, 27.00000000000000000, #89 ) ;
#192 = FACE_OUTER_BOUND ( 'NONE', #86, .T. ) ;
#193 = CARTESIAN_POINT ( 'NONE',  ( -1.282749433769087757E-30, 4.499279347985572824E-32, -3.673940397442059868E-16 ) ) ;
#194 = CARTESIAN_POINT ( 'NONE',  ( 2.597662116099291216E-13, -9.111372185656307013E-15, 74.39999999999999147 ) ) ;
#195 = AXIS2_PLACEMENT_3D ( 'NONE', #20, #177, #33 ) ;
#196 =( NAMED_UNIT ( * ) PLANE_ANGLE_UNIT ( ) SI_UNIT ( $, .RADIAN. ) );
#197 = ORIENTED_EDGE ( 'NONE', *, *, #188, .T. ) ;
#198 = VERTEX_POINT ( 'NONE', #37 ) ;
#199 = ORIENTED_EDGE ( 'NONE', *, *, #3, .T. ) ;
#200 = CALENDAR_DATE ( 2021, 22, 11 ) ;
#201 = COORDINATED_UNIVERSAL_TIME_OFFSET ( 1, 0, .AHEAD. ) ;
#202 = ORGANIZATION ( 'UNSPECIFIED', 'UNSPECIFIED', '' ) ;
#203 = APPROVAL_DATE_TIME ( #88, #106 ) ;
ENDSEC;
END-ISO-10303-21;
