ISO-10303-21;
HEADER;
FILE_DESCRIPTION (( 'STEP AP203' ),
    '1' );
FILE_NAME ('26763.step',
    '2021-10-07T13:46:32',
    ( '' ),
    ( '' ),
    'SwSTEP 2.0',
    'SolidWorks 2019',
    '' );
FILE_SCHEMA (( 'CONFIG_CONTROL_DESIGN' ));
ENDSEC;

DATA;
#1 = CC_DESIGN_PERSON_AND_ORGANIZATION_ASSIGNMENT ( #160, #57, ( #54 ) ) ;
#2 = CARTESIAN_POINT ( 'NONE',  ( 1.047444401652940007E-13, 4.124339402320045473E-33, 30.00000000000000000 ) ) ;
#3 = PERSON_AND_ORGANIZATION_ROLE ( 'design_owner' ) ;
#4 = EDGE_LOOP ( 'NONE', ( #152 ) ) ;
#5 = DIRECTION ( 'NONE',  ( 3.081487911019584371E-31, 1.000000000000000000, 8.673617379884055194E-17 ) ) ;
#6 = AXIS2_PLACEMENT_3D ( 'NONE', #136, #119, #5 ) ;
#7 = ORIENTED_EDGE ( 'NONE', *, *, #64, .F. ) ;
#8 = PERSON_AND_ORGANIZATION ( #159, #30 ) ;
#9 = PERSON_AND_ORGANIZATION_ROLE ( 'creator' ) ;
#10 = EDGE_LOOP ( 'NONE', ( #47 ) ) ;
#11 = APPROVAL_PERSON_ORGANIZATION ( #8, #168, #133 ) ;
#12 = PERSON_AND_ORGANIZATION ( #159, #30 ) ;
#13 = ADVANCED_FACE ( 'NONE', ( #79, #194 ), #60, .T. ) ;
#14 =( NAMED_UNIT ( * ) PLANE_ANGLE_UNIT ( ) SI_UNIT ( $, .RADIAN. ) );
#15 = CALENDAR_DATE ( 2021, 7, 10 ) ;
#16 = CIRCLE ( 'NONE', #185, 0.7499999999999992228 ) ;
#17 = CC_DESIGN_PERSON_AND_ORGANIZATION_ASSIGNMENT ( #121, #140, ( #106 ) ) ;
#18 = APPROVAL_ROLE ( '' ) ;
#19 = CIRCLE ( 'NONE', #206, 0.5499999999999990452 ) ;
#20 = CARTESIAN_POINT ( 'NONE',  ( 3.491481338843133355E-14, -1.224646799147353256E-15, 10.00000000000000000 ) ) ;
#21 = COORDINATED_UNIVERSAL_TIME_OFFSET ( 1, 0, .AHEAD. ) ;
#22 = PLANE ( 'NONE',  #51 ) ;
#23 = PLANE ( 'NONE',  #71 ) ;
#24 = CC_DESIGN_PERSON_AND_ORGANIZATION_ASSIGNMENT ( #189, #27, ( #223 ) ) ;
#25 = CARTESIAN_POINT ( 'NONE',  ( 1.047444401652940007E-13, -3.673940397442059178E-15, 30.00000000000000000 ) ) ;
#26 = FACE_BOUND ( 'NONE', #4, .T. ) ;
#27 = PERSON_AND_ORGANIZATION_ROLE ( 'classification_officer' ) ;
#28 = DIRECTION ( 'NONE',  ( -3.491481338843133355E-15, 1.224646799147353207E-16, -1.000000000000000000 ) ) ;
#29 = DATE_TIME_ROLE ( 'classification_date' ) ;
#30 = ORGANIZATION ( 'UNSPECIFIED', 'UNSPECIFIED', '' ) ;
#31 = DIRECTION ( 'NONE',  ( 0.0000000000000000000, 1.000000000000000000, 0.0000000000000000000 ) ) ;
#32 = DIRECTION ( 'NONE',  ( 0.0000000000000000000, 1.000000000000000000, 0.0000000000000000000 ) ) ;
#33 = CARTESIAN_POINT ( 'NONE',  ( 1.047444401652940007E-13, 0.5499999999999953815, 30.00000000000000000 ) ) ;
#34 = ADVANCED_FACE ( 'NONE', ( #167 ), #73, .F. ) ;
#35 = ORIENTED_EDGE ( 'NONE', *, *, #82, .F. ) ;
#36 = LOCAL_TIME ( 15, 46, 32.00000000000000000, #169 ) ;
#37 = CLOSED_SHELL ( 'NONE', ( #34, #146, #13, #135, #209 ) ) ;
#38 = CARTESIAN_POINT ( 'NONE',  ( 1.311183524112798999E-15, -4.599012711411284131E-17, 0.3755378868922285007 ) ) ;
#39 = EDGE_CURVE ( 'NONE', #211, #211, #16, .T. ) ;
#40 = DIRECTION ( 'NONE',  ( 4.275831445896958607E-31, 1.000000000000000000, 1.224646799147353207E-16 ) ) ;
#41 = CONICAL_SURFACE ( 'NONE', #145, 0.7499999999999976685, 0.5235987755982934866 ) ;
#42 = FACE_OUTER_BOUND ( 'NONE', #68, .T. ) ;
#43 = EDGE_LOOP ( 'NONE', ( #178 ) ) ;
#44 = FACE_OUTER_BOUND ( 'NONE', #204, .T. ) ;
#45 = APPROVAL_DATE_TIME ( #103, #67 ) ;
#46 = EDGE_CURVE ( 'NONE', #195, #195, #131, .T. ) ;
#47 = ORIENTED_EDGE ( 'NONE', *, *, #171, .F. ) ;
#48 = DIRECTION ( 'NONE',  ( 0.0000000000000000000, 1.000000000000000000, 0.0000000000000000000 ) ) ;
#49 = APPROVAL_STATUS ( 'not_yet_approved' ) ;
#50 = ORIENTED_EDGE ( 'NONE', *, *, #221, .T. ) ;
#51 = AXIS2_PLACEMENT_3D ( 'NONE', #98, #85, #175 ) ;
#52 = EDGE_LOOP ( 'NONE', ( #50 ) ) ;
#53 = CARTESIAN_POINT ( 'NONE',  ( 1.311183524112799196E-15, 0.6249999999999985567, 0.3755378868922285562 ) ) ;
#54 = PRODUCT_DEFINITION ( 'UNKNOWN', '', #106, #200 ) ;
#55 = COORDINATED_UNIVERSAL_TIME_OFFSET ( 1, 0, .AHEAD. ) ;
#56 = DIRECTION ( 'NONE',  ( 0.0000000000000000000, 0.0000000000000000000, 1.000000000000000000 ) ) ;
#57 = PERSON_AND_ORGANIZATION_ROLE ( 'creator' ) ;
#58 = APPROVAL_ROLE ( '' ) ;
#59 = DIRECTION ( 'NONE',  ( 3.491481338843133355E-15, -1.224646799147353207E-16, 1.000000000000000000 ) ) ;
#60 = CYLINDRICAL_SURFACE ( 'NONE', #76, 0.7499999999999984457 ) ;
#61 = CONICAL_SURFACE ( 'NONE', #150, 0.6249999999999985567, 1.029744258676649649 ) ;
#62 = DIRECTION ( 'NONE',  ( 0.0000000000000000000, 1.000000000000000000, 0.0000000000000000000 ) ) ;
#63 = MANIFOLD_SOLID_BREP ( 'Corps-Déplacer/Copier1[1]', #37 ) ;
#64 = EDGE_CURVE ( 'NONE', #122, #122, #102, .T. ) ;
#65 = APPLICATION_CONTEXT ( 'configuration controlled 3d designs of mechanical parts and assemblies' ) ;
#66 = CALENDAR_DATE ( 2021, 7, 10 ) ;
#67 = APPROVAL ( #157, 'UNSPECIFIED' ) ;
#68 = EDGE_LOOP ( 'NONE', ( #35 ) ) ;
#69 = CARTESIAN_POINT ( 'NONE',  ( 3.567074127250069701E-14, -1.251161180115475812E-15, 10.21650635094610848 ) ) ;
#70 = MECHANICAL_CONTEXT ( 'NONE', #65, 'mechanical' ) ;
#71 = AXIS2_PLACEMENT_3D ( 'NONE', #2, #97, #40 ) ;
#72 =( NAMED_UNIT ( * ) SI_UNIT ( $, .STERADIAN. ) SOLID_ANGLE_UNIT ( ) );
#73 = PLANE ( 'NONE',  #80 ) ;
#74 = CC_DESIGN_DATE_AND_TIME_ASSIGNMENT ( #176, #29, ( #223 ) ) ;
#75 = DATE_TIME_ROLE ( 'creation_date' ) ;
#76 = AXIS2_PLACEMENT_3D ( 'NONE', #143, #123, #158 ) ;
#77 = CC_DESIGN_APPROVAL ( #173, ( #54 ) ) ;
#78 = CALENDAR_DATE ( 2021, 7, 10 ) ;
#79 = FACE_OUTER_BOUND ( 'NONE', #199, .T. ) ;
#80 = AXIS2_PLACEMENT_3D ( 'NONE', #142, #59, #127 ) ;
#81 = CC_DESIGN_SECURITY_CLASSIFICATION ( #223, ( #106 ) ) ;
#82 = EDGE_CURVE ( 'NONE', #126, #126, #19, .T. ) ;
#83 = APPROVAL_DATE_TIME ( #183, #168 ) ;
#84 = AXIS2_PLACEMENT_3D ( 'NONE', #91, #56, #156 ) ;
#85 = DIRECTION ( 'NONE',  ( 3.491481338843133355E-15, -1.224646799147353207E-16, 1.000000000000000000 ) ) ;
#86 = CLOSED_SHELL ( 'NONE', ( #179, #130, #125 ) ) ;
#87 = AXIS2_PLACEMENT_3D ( 'NONE', #151, #120, #208 ) ;
#88 = CYLINDRICAL_SURFACE ( 'NONE', #87, 0.6249999999999990008 ) ;
#89 = DIRECTION ( 'NONE',  ( -3.491481338843133355E-15, 1.224646799147353207E-16, -1.000000000000000000 ) ) ;
#90 = EDGE_LOOP ( 'NONE', ( #188 ) ) ;
#91 = CARTESIAN_POINT ( 'NONE',  ( 0.0000000000000000000, 0.0000000000000000000, 0.0000000000000000000 ) ) ;
#92 = AXIS2_PLACEMENT_3D ( 'NONE', #25, #28, #48 ) ;
#93 = ORIENTED_EDGE ( 'NONE', *, *, #221, .F. ) ;
#94 = CC_DESIGN_DATE_AND_TIME_ASSIGNMENT ( #124, #75, ( #54 ) ) ;
#95 = DATE_AND_TIME ( #15, #36 ) ;
#96 = DIRECTION ( 'NONE',  ( -3.491481338843133355E-15, 1.224646799147353207E-16, -1.000000000000000000 ) ) ;
#97 = DIRECTION ( 'NONE',  ( -3.491481338843133355E-15, 1.224646799147353207E-16, -1.000000000000000000 ) ) ;
#98 = CARTESIAN_POINT ( 'NONE',  ( 3.491481338843133355E-14, 4.686749320818284498E-33, 10.00000000000000000 ) ) ;
#99 = DIRECTION ( 'NONE',  ( -3.081487911019584371E-31, -1.000000000000000000, -8.673617379884055194E-17 ) ) ;
#100 = APPLICATION_CONTEXT ( 'configuration controlled 3d designs of mechanical parts and assemblies' ) ;
#101 = CARTESIAN_POINT ( 'NONE',  ( 3.491481338843133355E-14, -1.224646799147353256E-15, 10.00000000000000000 ) ) ;
#102 = CIRCLE ( 'NONE', #220, 0.7499999999999976685 ) ;
#103 = DATE_AND_TIME ( #191, #128 ) ;
#104 = CIRCLE ( 'NONE', #6, 0.6249999999999985567 ) ;
#105 = APPLICATION_PROTOCOL_DEFINITION ( 'international standard', 'config_control_design', 1994, #65 ) ;
#106 = PRODUCT_DEFINITION_FORMATION_WITH_SPECIFIED_SOURCE ( 'ANY', '', #111, .NOT_KNOWN. ) ;
#107 = APPROVAL_DATE_TIME ( #95, #173 ) ;
#108 = PERSON_AND_ORGANIZATION ( #159, #30 ) ;
#109 = APPROVAL_STATUS ( 'not_yet_approved' ) ;
#110 = APPROVAL_PERSON_ORGANIZATION ( #108, #173, #18 ) ;
#111 = PRODUCT ( '26763', '26763', '', ( #70 ) ) ;
#112 = CARTESIAN_POINT ( 'NONE',  ( 1.040461438975253866E-13, -3.649447461459112464E-15, 29.80000000000000426 ) ) ;
#113 = DIRECTION ( 'NONE',  ( 0.0000000000000000000, 1.000000000000000000, 0.0000000000000000000 ) ) ;
#114 = FACE_OUTER_BOUND ( 'NONE', #218, .T. ) ;
#115 = DIRECTION ( 'NONE',  ( -3.491481338843133355E-15, 1.224646799147353207E-16, -1.000000000000000000 ) ) ;
#116 = FACE_OUTER_BOUND ( 'NONE', #10, .T. ) ;
#117 = APPROVAL_PERSON_ORGANIZATION ( #12, #67, #58 ) ;
#118 = EDGE_LOOP ( 'NONE', ( #129 ) ) ;
#119 = DIRECTION ( 'NONE',  ( -3.491481338843133355E-15, 1.224646799147353207E-16, -1.000000000000000000 ) ) ;
#120 = DIRECTION ( 'NONE',  ( -3.491481338843133355E-15, 1.224646799147353207E-16, -1.000000000000000000 ) ) ;
#121 = PERSON_AND_ORGANIZATION ( #159, #30 ) ;
#122 = VERTEX_POINT ( 'NONE', #196 ) ;
#123 = DIRECTION ( 'NONE',  ( -3.491481338843133355E-15, 1.224646799147353207E-16, -1.000000000000000000 ) ) ;
#124 = DATE_AND_TIME ( #78, #203 ) ;
#125 = ADVANCED_FACE ( 'NONE', ( #116 ), #22, .T. ) ;
#126 = VERTEX_POINT ( 'NONE', #33 ) ;
#127 = DIRECTION ( 'NONE',  ( -4.275831445896958607E-31, -1.000000000000000000, -1.224646799147353207E-16 ) ) ;
#128 = LOCAL_TIME ( 15, 46, 32.00000000000000000, #213 ) ;
#129 = ORIENTED_EDGE ( 'NONE', *, *, #46, .F. ) ;
#130 = ADVANCED_FACE ( 'NONE', ( #148, #149 ), #88, .T. ) ;
#131 = CIRCLE ( 'NONE', #197, 0.6249999999999995559 ) ;
#132 = CC_DESIGN_APPROVAL ( #168, ( #223 ) ) ;
#133 = APPROVAL_ROLE ( '' ) ;
#134 = DIRECTION ( 'NONE',  ( 3.491481338843133355E-15, -1.224646799147353207E-16, 1.000000000000000000 ) ) ;
#135 = ADVANCED_FACE ( 'NONE', ( #44, #26 ), #198, .T. ) ;
#136 = CARTESIAN_POINT ( 'NONE',  ( 1.311183524112798999E-15, -4.599012711411284131E-17, 0.3755378868922285007 ) ) ;
#137 = CARTESIAN_POINT ( 'NONE',  ( 1.040461438975253866E-13, 0.7499999999999955591, 29.80000000000000426 ) ) ;
#138 = CC_DESIGN_APPROVAL ( #67, ( #106 ) ) ;
#139 = VERTEX_POINT ( 'NONE', #216 ) ;
#140 = PERSON_AND_ORGANIZATION_ROLE ( 'design_supplier' ) ;
#141 = CARTESIAN_POINT ( 'NONE',  ( 1.047444401652940007E-13, -3.673940397442059178E-15, 30.00000000000000000 ) ) ;
#142 = CARTESIAN_POINT ( 'NONE',  ( 3.491481338843133355E-14, 4.686749320818284498E-33, 10.00000000000000000 ) ) ;
#143 = CARTESIAN_POINT ( 'NONE',  ( 0.0000000000000000000, 0.0000000000000000000, 0.0000000000000000000 ) ) ;
#144 = CARTESIAN_POINT ( 'NONE',  ( 3.491481338843133355E-14, 0.6249999999999983347, 10.00000000000000000 ) ) ;
#145 = AXIS2_PLACEMENT_3D ( 'NONE', #69, #134, #177 ) ;
#146 = ADVANCED_FACE ( 'NONE', ( #214, #114 ), #41, .T. ) ;
#147 = ADVANCED_BREP_SHAPE_REPRESENTATION ( '26763', ( #63, #201, #84 ), #163 ) ;
#148 = FACE_OUTER_BOUND ( 'NONE', #210, .T. ) ;
#149 = FACE_OUTER_BOUND ( 'NONE', #43, .T. ) ;
#150 = AXIS2_PLACEMENT_3D ( 'NONE', #38, #174, #99 ) ;
#151 = CARTESIAN_POINT ( 'NONE',  ( 0.0000000000000000000, 0.0000000000000000000, 0.0000000000000000000 ) ) ;
#152 = ORIENTED_EDGE ( 'NONE', *, *, #82, .T. ) ;
#153 = CARTESIAN_POINT ( 'NONE',  ( 3.567074127250069701E-14, -1.251161180115475812E-15, 10.21650635094610848 ) ) ;
#154 = EDGE_LOOP ( 'NONE', ( #165 ) ) ;
#155 = ORIENTED_EDGE ( 'NONE', *, *, #64, .T. ) ;
#156 = DIRECTION ( 'NONE',  ( 1.000000000000000000, 0.0000000000000000000, 0.0000000000000000000 ) ) ;
#157 = APPROVAL_STATUS ( 'not_yet_approved' ) ;
#158 = DIRECTION ( 'NONE',  ( 4.275831445896958607E-31, 1.000000000000000000, 1.224646799147353454E-16 ) ) ;
#159 = PERSON ( 'UNSPECIFIED', 'UNSPECIFIED', 'UNSPECIFIED', ('UNSPECIFIED'), ('UNSPECIFIED'), ('UNSPECIFIED') ) ;
#160 = PERSON_AND_ORGANIZATION ( #159, #30 ) ;
#161 = LOCAL_TIME ( 15, 46, 32.00000000000000000, #21 ) ;
#162 = FACE_OUTER_BOUND ( 'NONE', #52, .T. ) ;
#163 =( GEOMETRIC_REPRESENTATION_CONTEXT ( 3 ) GLOBAL_UNCERTAINTY_ASSIGNED_CONTEXT ( ( #205 ) ) GLOBAL_UNIT_ASSIGNED_CONTEXT ( ( #170, #14, #72 ) ) REPRESENTATION_CONTEXT ( 'NONE', 'WORKASPACE' ) );
#164 = PERSON_AND_ORGANIZATION ( #159, #30 ) ;
#165 = ORIENTED_EDGE ( 'NONE', *, *, #39, .T. ) ;
#166 = LOCAL_TIME ( 15, 46, 32.00000000000000000, #55 ) ;
#167 = FACE_OUTER_BOUND ( 'NONE', #90, .T. ) ;
#168 = APPROVAL ( #49, 'UNSPECIFIED' ) ;
#169 = COORDINATED_UNIVERSAL_TIME_OFFSET ( 1, 0, .AHEAD. ) ;
#170 =( LENGTH_UNIT ( ) NAMED_UNIT ( * ) SI_UNIT ( .MILLI., .METRE. ) );
#171 = EDGE_CURVE ( 'NONE', #139, #139, #186, .T. ) ;
#172 = SHAPE_DEFINITION_REPRESENTATION ( #212, #147 ) ;
#173 = APPROVAL ( #109, 'UNSPECIFIED' ) ;
#174 = DIRECTION ( 'NONE',  ( 3.491481338843133355E-15, -1.224646799147353207E-16, 1.000000000000000000 ) ) ;
#175 = DIRECTION ( 'NONE',  ( -4.275831445896958607E-31, -1.000000000000000000, -1.224646799147353207E-16 ) ) ;
#176 = DATE_AND_TIME ( #66, #166 ) ;
#177 = DIRECTION ( 'NONE',  ( 0.0000000000000000000, -1.000000000000000000, 0.0000000000000000000 ) ) ;
#178 = ORIENTED_EDGE ( 'NONE', *, *, #171, .T. ) ;
#179 = ADVANCED_FACE ( 'NONE', ( #162 ), #61, .T. ) ;
#180 = PERSON_AND_ORGANIZATION ( #159, #30 ) ;
#181 = VERTEX_POINT ( 'NONE', #53 ) ;
#182 = CC_DESIGN_PERSON_AND_ORGANIZATION_ASSIGNMENT ( #164, #9, ( #106 ) ) ;
#183 = DATE_AND_TIME ( #222, #161 ) ;
#184 = DIRECTION ( 'NONE',  ( -3.491481338843133355E-15, 1.224646799147353207E-16, -1.000000000000000000 ) ) ;
#185 = AXIS2_PLACEMENT_3D ( 'NONE', #112, #115, #62 ) ;
#186 = CIRCLE ( 'NONE', #190, 0.6249999999999995559 ) ;
#187 = DIRECTION ( 'NONE',  ( -3.491481338843133355E-15, 1.224646799147353207E-16, -1.000000000000000000 ) ) ;
#188 = ORIENTED_EDGE ( 'NONE', *, *, #46, .T. ) ;
#189 = PERSON_AND_ORGANIZATION ( #159, #30 ) ;
#190 = AXIS2_PLACEMENT_3D ( 'NONE', #101, #187, #31 ) ;
#191 = CALENDAR_DATE ( 2021, 7, 10 ) ;
#192 = ORIENTED_EDGE ( 'NONE', *, *, #39, .F. ) ;
#193 = SECURITY_CLASSIFICATION_LEVEL ( 'unclassified' ) ;
#194 = FACE_OUTER_BOUND ( 'NONE', #154, .T. ) ;
#195 = VERTEX_POINT ( 'NONE', #144 ) ;
#196 = CARTESIAN_POINT ( 'NONE',  ( 3.567074127250069701E-14, 0.7499999999999963363, 10.21650635094610848 ) ) ;
#197 = AXIS2_PLACEMENT_3D ( 'NONE', #20, #184, #113 ) ;
#198 = CONICAL_SURFACE ( 'NONE', #92, 0.5499999999999990452, 0.7853981633974604915 ) ;
#199 = EDGE_LOOP ( 'NONE', ( #7 ) ) ;
#200 = DESIGN_CONTEXT ( 'detailed design', #100, 'design' ) ;
#201 = MANIFOLD_SOLID_BREP ( 'Corps-Déplacer/Copier1[2]', #86 ) ;
#202 = PRODUCT_RELATED_PRODUCT_CATEGORY ( 'detail', '', ( #111 ) ) ;
#203 = LOCAL_TIME ( 15, 46, 32.00000000000000000, #219 ) ;
#204 = EDGE_LOOP ( 'NONE', ( #192 ) ) ;
#205 = UNCERTAINTY_MEASURE_WITH_UNIT (LENGTH_MEASURE( 1.000000000000000082E-05 ), #170, 'distance_accuracy_value', 'NONE');
#206 = AXIS2_PLACEMENT_3D ( 'NONE', #141, #96, #207 ) ;
#207 = DIRECTION ( 'NONE',  ( 0.0000000000000000000, 1.000000000000000000, 0.0000000000000000000 ) ) ;
#208 = DIRECTION ( 'NONE',  ( 4.275831445896958607E-31, 1.000000000000000000, 1.224646799147353207E-16 ) ) ;
#209 = ADVANCED_FACE ( 'NONE', ( #42 ), #23, .F. ) ;
#210 = EDGE_LOOP ( 'NONE', ( #93 ) ) ;
#211 = VERTEX_POINT ( 'NONE', #137 ) ;
#212 = PRODUCT_DEFINITION_SHAPE ( 'NONE', 'NONE',  #54 ) ;
#213 = COORDINATED_UNIVERSAL_TIME_OFFSET ( 1, 0, .AHEAD. ) ;
#214 = FACE_BOUND ( 'NONE', #118, .T. ) ;
#215 = CC_DESIGN_PERSON_AND_ORGANIZATION_ASSIGNMENT ( #180, #3, ( #111 ) ) ;
#216 = CARTESIAN_POINT ( 'NONE',  ( 3.491481338843133355E-14, 0.6249999999999983347, 10.00000000000000000 ) ) ;
#217 = APPLICATION_PROTOCOL_DEFINITION ( 'international standard', 'config_control_design', 1994, #100 ) ;
#218 = EDGE_LOOP ( 'NONE', ( #155 ) ) ;
#219 = COORDINATED_UNIVERSAL_TIME_OFFSET ( 1, 0, .AHEAD. ) ;
#220 = AXIS2_PLACEMENT_3D ( 'NONE', #153, #89, #32 ) ;
#221 = EDGE_CURVE ( 'NONE', #181, #181, #104, .T. ) ;
#222 = CALENDAR_DATE ( 2021, 7, 10 ) ;
#223 = SECURITY_CLASSIFICATION ( '', '', #193 ) ;
ENDSEC;
END-ISO-10303-21;
