ISO-10303-21;
HEADER;
FILE_DESCRIPTION (( 'STEP AP203' ),
    '1' );
FILE_NAME ('267.step',
    '2021-09-03T07:21:41',
    ( '' ),
    ( '' ),
    'SwSTEP 2.0',
    'SolidWorks 2019',
    '' );
FILE_SCHEMA (( 'CONFIG_CONTROL_DESIGN' ));
ENDSEC;

DATA;
#1 = ORIENTED_EDGE ( 'NONE', *, *, #7, .F. ) ;
#2 = DATE_TIME_ROLE ( 'creation_date' ) ;
#3 = CALENDAR_DATE ( 2021, 3, 9 ) ;
#4 = ORIENTED_EDGE ( 'NONE', *, *, #149, .T. ) ;
#5 = PERSON_AND_ORGANIZATION ( #297, #121 ) ;
#6 = ORIENTED_EDGE ( 'NONE', *, *, #98, .F. ) ;
#7 = EDGE_CURVE ( 'NONE', #240, #167, #193, .T. ) ;
#8 = VERTEX_POINT ( 'NONE', #170 ) ;
#9 = DIRECTION ( 'NONE',  ( 0.0000000000000000000, 1.000000000000000000, 0.0000000000000000000 ) ) ;
#10 = FACE_OUTER_BOUND ( 'NONE', #27, .T. ) ;
#11 = CARTESIAN_POINT ( 'NONE',  ( 1.326762908760390423E-13, 4.311809375152777674E-33, 38.00000000000000000 ) ) ;
#12 = DIRECTION ( 'NONE',  ( -3.491481338843133355E-15, 1.224646799147353207E-16, -1.000000000000000000 ) ) ;
#13 = VERTEX_POINT ( 'NONE', #268 ) ;
#14 = CARTESIAN_POINT ( 'NONE',  ( 9.491012693391945386E-17, -0.7749999999999992450, -9.491012693392009481E-17 ) ) ;
#15 = AXIS2_PLACEMENT_3D ( 'NONE', #11, #40, #56 ) ;
#16 = APPROVAL_PERSON_ORGANIZATION ( #289, #122, #262 ) ;
#17 = FACE_OUTER_BOUND ( 'NONE', #55, .T. ) ;
#18 = DIRECTION ( 'NONE',  ( -2.468850131082257455E-15, 0.7071067811865497932, -0.7071067811865453523 ) ) ;
#19 = VECTOR ( 'NONE', #195, 1000.000000000000114 ) ;
#20 = CLOSED_SHELL ( 'NONE', ( #128, #280, #51, #229, #265, #123 ) ) ;
#21 = LINE ( 'NONE', #228, #53 ) ;
#22 = DIRECTION ( 'NONE',  ( -3.491481338843133355E-15, 1.224646799147353207E-16, -1.000000000000000000 ) ) ;
#23 = ADVANCED_FACE ( 'NONE', ( #215 ), #241, .T. ) ;
#24 = APPROVAL_DATE_TIME ( #153, #324 ) ;
#25 = ORIENTED_EDGE ( 'NONE', *, *, #98, .T. ) ;
#26 = AXIS2_PLACEMENT_3D ( 'NONE', #213, #12, #113 ) ;
#27 = EDGE_LOOP ( 'NONE', ( #204, #233 ) ) ;
#28 = ORIENTED_EDGE ( 'NONE', *, *, #249, .T. ) ;
#29 = PERSON_AND_ORGANIZATION ( #297, #121 ) ;
#30 = COORDINATED_UNIVERSAL_TIME_OFFSET ( 1, 0, .AHEAD. ) ;
#31 = FACE_OUTER_BOUND ( 'NONE', #318, .T. ) ;
#32 = CIRCLE ( 'NONE', #129, 0.5750000000000009548 ) ;
#33 = EDGE_LOOP ( 'NONE', ( #25, #288, #316, #58 ) ) ;
#34 = CC_DESIGN_APPROVAL ( #133, ( #181 ) ) ;
#35 = DIRECTION ( 'NONE',  ( 0.0000000000000000000, 1.000000000000000000, 0.0000000000000000000 ) ) ;
#36 = CARTESIAN_POINT ( 'NONE',  ( 0.0000000000000000000, 0.0000000000000000000, 0.0000000000000000000 ) ) ;
#37 = DIRECTION ( 'NONE',  ( 0.0000000000000000000, 1.000000000000000000, 0.0000000000000000000 ) ) ;
#38 = CARTESIAN_POINT ( 'NONE',  ( 1.319779946082704535E-13, -4.629164900776995227E-15, 37.79999999999999716 ) ) ;
#39 = DIRECTION ( 'NONE',  ( 4.275831445896958607E-31, 1.000000000000000000, 1.224646799147353207E-16 ) ) ;
#40 = DIRECTION ( 'NONE',  ( -3.491481338843133355E-15, 1.224646799147353207E-16, -1.000000000000000000 ) ) ;
#41 = CARTESIAN_POINT ( 'NONE',  ( 1.326762908760390423E-13, 0.5749999999999962919, 38.00000000000000000 ) ) ;
#42 = ADVANCED_FACE ( 'NONE', ( #264 ), #81, .T. ) ;
#43 = DIRECTION ( 'NONE',  ( 1.000000000000000000, 0.0000000000000000000, 0.0000000000000000000 ) ) ;
#44 = DATE_AND_TIME ( #178, #46 ) ;
#45 = DIRECTION ( 'NONE',  ( 0.0000000000000000000, 1.000000000000000000, 0.0000000000000000000 ) ) ;
#46 = LOCAL_TIME ( 9, 21, 41.00000000000000000, #73 ) ;
#47 = DATE_TIME_ROLE ( 'classification_date' ) ;
#48 = APPROVAL_STATUS ( 'not_yet_approved' ) ;
#49 = ORIENTED_EDGE ( 'NONE', *, *, #174, .T. ) ;
#50 = COORDINATED_UNIVERSAL_TIME_OFFSET ( 1, 0, .AHEAD. ) ;
#51 = ADVANCED_FACE ( 'NONE', ( #10 ), #112, .F. ) ;
#52 = AXIS2_PLACEMENT_3D ( 'NONE', #67, #242, #216 ) ;
#53 = VECTOR ( 'NONE', #69, 1000.000000000000000 ) ;
#54 = COORDINATED_UNIVERSAL_TIME_OFFSET ( 1, 0, .AHEAD. ) ;
#55 = EDGE_LOOP ( 'NONE', ( #208, #28, #6, #320 ) ) ;
#56 = DIRECTION ( 'NONE',  ( 4.275831445896958607E-31, 1.000000000000000000, 1.224646799147353207E-16 ) ) ;
#57 = APPROVAL_STATUS ( 'not_yet_approved' ) ;
#58 = ORIENTED_EDGE ( 'NONE', *, *, #109, .F. ) ;
#59 = CARTESIAN_POINT ( 'NONE',  ( 0.0000000000000000000, 0.0000000000000000000, 0.0000000000000000000 ) ) ;
#60 = ORIENTED_EDGE ( 'NONE', *, *, #174, .F. ) ;
#61 = LINE ( 'NONE', #14, #251 ) ;
#62 = AXIS2_PLACEMENT_3D ( 'NONE', #222, #220, #84 ) ;
#63 = ORIENTED_EDGE ( 'NONE', *, *, #64, .F. ) ;
#64 = EDGE_CURVE ( 'NONE', #323, #13, #326, .T. ) ;
#65 = CARTESIAN_POINT ( 'NONE',  ( 0.0000000000000000000, 0.0000000000000000000, 0.0000000000000000000 ) ) ;
#66 = ORIENTED_EDGE ( 'NONE', *, *, #83, .T. ) ;
#67 = CARTESIAN_POINT ( 'NONE',  ( 1.326762908760390423E-13, -4.653657836759941941E-15, 38.00000000000000000 ) ) ;
#68 =( GEOMETRIC_REPRESENTATION_CONTEXT ( 3 ) GLOBAL_UNCERTAINTY_ASSIGNED_CONTEXT ( ( #315 ) ) GLOBAL_UNIT_ASSIGNED_CONTEXT ( ( #230, #125, #225 ) ) REPRESENTATION_CONTEXT ( 'NONE', 'WORKASPACE' ) );
#69 = DIRECTION ( 'NONE',  ( 1.798245827342159528E-15, -0.8571673007021100021, 0.5150380749100580413 ) ) ;
#70 = AXIS2_PLACEMENT_3D ( 'NONE', #65, #169, #39 ) ;
#71 = CC_DESIGN_SECURITY_CLASSIFICATION ( #176, ( #181 ) ) ;
#72 = DIRECTION ( 'NONE',  ( -3.491481338843133355E-15, 1.224646799147353207E-16, -1.000000000000000000 ) ) ;
#73 = COORDINATED_UNIVERSAL_TIME_OFFSET ( 1, 0, .AHEAD. ) ;
#74 = LINE ( 'NONE', #214, #310 ) ;
#75 = AXIS2_PLACEMENT_3D ( 'NONE', #38, #166, #327 ) ;
#76 = DIRECTION ( 'NONE',  ( -3.491481338843133355E-15, 1.224646799147353207E-16, -1.000000000000000000 ) ) ;
#77 = ORIENTED_EDGE ( 'NONE', *, *, #332, .T. ) ;
#78 = COORDINATED_UNIVERSAL_TIME_OFFSET ( 1, 0, .AHEAD. ) ;
#79 = PERSON_AND_ORGANIZATION_ROLE ( 'design_supplier' ) ;
#80 = AXIS2_PLACEMENT_3D ( 'NONE', #221, #329, #302 ) ;
#81 = CYLINDRICAL_SURFACE ( 'NONE', #124, 0.7749999999999968026 ) ;
#82 = CARTESIAN_POINT ( 'NONE',  ( 3.313769370570139461E-31, 0.7749999999999992450, 9.491012693391977433E-17 ) ) ;
#83 = EDGE_CURVE ( 'NONE', #325, #158, #74, .T. ) ;
#84 = DIRECTION ( 'NONE',  ( -4.970141791967083659E-31, -1.000000000000000000, -1.398970545142592951E-16 ) ) ;
#85 = DIRECTION ( 'NONE',  ( -3.491481338843133355E-15, 1.224646799147353207E-16, -1.000000000000000000 ) ) ;
#86 = EDGE_LOOP ( 'NONE', ( #206, #152 ) ) ;
#87 = FACE_OUTER_BOUND ( 'NONE', #33, .T. ) ;
#88 = CLOSED_SHELL ( 'NONE', ( #42, #23, #196, #255, #307 ) ) ;
#89 = ORIENTED_EDGE ( 'NONE', *, *, #291, .T. ) ;
#90 = PLANE ( 'NONE',  #15 ) ;
#91 = CC_DESIGN_DATE_AND_TIME_ASSIGNMENT ( #156, #2, ( #236 ) ) ;
#92 = CARTESIAN_POINT ( 'NONE',  ( 3.142333204958820020E-14, -1.102182119232617714E-15, 9.000000000000000000 ) ) ;
#93 = ADVANCED_BREP_SHAPE_REPRESENTATION ( '267', ( #282, #168, #227 ), #68 ) ;
#94 = LINE ( 'NONE', #263, #19 ) ;
#95 = CIRCLE ( 'NONE', #303, 0.7749999999999973577 ) ;
#96 = CIRCLE ( 'NONE', #317, 0.7749999999999963585 ) ;
#97 = APPROVAL_ROLE ( '' ) ;
#98 = EDGE_CURVE ( 'NONE', #13, #323, #175, .T. ) ;
#99 = DIRECTION ( 'NONE',  ( 3.491481338843133355E-15, -1.224646799147353207E-16, 1.000000000000000000 ) ) ;
#100 = CARTESIAN_POINT ( 'NONE',  ( 3.142333204958820020E-14, -1.102182119232617714E-15, 9.000000000000000000 ) ) ;
#101 = PERSON_AND_ORGANIZATION ( #297, #121 ) ;
#102 = DIRECTION ( 'NONE',  ( 4.970141791967083659E-31, 1.000000000000000000, 1.398970545142592951E-16 ) ) ;
#103 = PERSON_AND_ORGANIZATION_ROLE ( 'creator' ) ;
#104 = SECURITY_CLASSIFICATION_LEVEL ( 'unclassified' ) ;
#105 = VERTEX_POINT ( 'NONE', #293 ) ;
#106 = CIRCLE ( 'NONE', #223, 0.7749999999999963585 ) ;
#107 = SHAPE_DEFINITION_REPRESENTATION ( #120, #93 ) ;
#108 = ORIENTED_EDGE ( 'NONE', *, *, #249, .F. ) ;
#109 = EDGE_CURVE ( 'NONE', #13, #139, #247, .T. ) ;
#110 = DIRECTION ( 'NONE',  ( -3.491481338843133355E-15, 1.224646799147353207E-16, -1.000000000000000000 ) ) ;
#111 = CARTESIAN_POINT ( 'NONE',  ( 1.661950993667793254E-14, -0.7749999999999985789, 9.000000000000000000 ) ) ;
#112 = PLANE ( 'NONE',  #159 ) ;
#113 = DIRECTION ( 'NONE',  ( 4.275831445896958607E-31, 1.000000000000000000, 1.224646799147353207E-16 ) ) ;
#114 = DIRECTION ( 'NONE',  ( -4.970141791967083659E-31, -1.000000000000000000, -1.398970545142592951E-16 ) ) ;
#115 = CYLINDRICAL_SURFACE ( 'NONE', #26, 0.7749999999999968026 ) ;
#116 = VECTOR ( 'NONE', #18, 1000.000000000000114 ) ;
#117 = CC_DESIGN_PERSON_AND_ORGANIZATION_ASSIGNMENT ( #101, #313, ( #176 ) ) ;
#118 = FACE_OUTER_BOUND ( 'NONE', #258, .T. ) ;
#119 = CARTESIAN_POINT ( 'NONE',  ( 3.142333204958820020E-14, -1.102182119232617714E-15, 9.000000000000000000 ) ) ;
#120 = PRODUCT_DEFINITION_SHAPE ( 'NONE', 'NONE',  #236 ) ;
#121 = ORGANIZATION ( 'UNSPECIFIED', 'UNSPECIFIED', '' ) ;
#122 = APPROVAL ( #57, 'UNSPECIFIED' ) ;
#123 = ADVANCED_FACE ( 'NONE', ( #140 ), #90, .F. ) ;
#124 = AXIS2_PLACEMENT_3D ( 'NONE', #36, #246, #188 ) ;
#125 =( NAMED_UNIT ( * ) PLANE_ANGLE_UNIT ( ) SI_UNIT ( $, .RADIAN. ) );
#126 = MECHANICAL_CONTEXT ( 'NONE', #217, 'mechanical' ) ;
#127 = PERSON_AND_ORGANIZATION ( #297, #121 ) ;
#128 = ADVANCED_FACE ( 'NONE', ( #17 ), #165, .T. ) ;
#129 = AXIS2_PLACEMENT_3D ( 'NONE', #279, #72, #9 ) ;
#130 = ORIENTED_EDGE ( 'NONE', *, *, #155, .F. ) ;
#131 = VERTEX_POINT ( 'NONE', #157 ) ;
#132 = CALENDAR_DATE ( 2021, 3, 9 ) ;
#133 = APPROVAL ( #252, 'UNSPECIFIED' ) ;
#134 = VECTOR ( 'NONE', #219, 1000.000000000000000 ) ;
#135 = FACE_OUTER_BOUND ( 'NONE', #162, .T. ) ;
#136 = VERTEX_POINT ( 'NONE', #260 ) ;
#137 = DIRECTION ( 'NONE',  ( -3.491481338843133355E-15, 1.224646799147353207E-16, -1.000000000000000000 ) ) ;
#138 = DIRECTION ( 'NONE',  ( -3.491481338843133355E-15, 1.224646799147353207E-16, -1.000000000000000000 ) ) ;
#139 = VERTEX_POINT ( 'NONE', #179 ) ;
#140 = FACE_OUTER_BOUND ( 'NONE', #86, .T. ) ;
#141 = LINE ( 'NONE', #328, #296 ) ;
#142 = VECTOR ( 'NONE', #137, 1000.000000000000000 ) ;
#143 = DIRECTION ( 'NONE',  ( 0.0000000000000000000, 1.000000000000000000, 0.0000000000000000000 ) ) ;
#144 = CYLINDRICAL_SURFACE ( 'NONE', #337, 0.7749999999999992450 ) ;
#145 = EDGE_CURVE ( 'NONE', #240, #136, #277, .T. ) ;
#146 = CARTESIAN_POINT ( 'NONE',  ( 1.319779946082704535E-13, -4.629164900776995227E-15, 37.79999999999999716 ) ) ;
#147 = LOCAL_TIME ( 9, 21, 41.00000000000000000, #78 ) ;
#148 = CALENDAR_DATE ( 2021, 3, 9 ) ;
#149 = EDGE_CURVE ( 'NONE', #131, #105, #32, .T. ) ;
#150 = LOCAL_TIME ( 9, 21, 41.00000000000000000, #50 ) ;
#151 = APPROVAL_DATE_TIME ( #239, #122 ) ;
#152 = ORIENTED_EDGE ( 'NONE', *, *, #149, .F. ) ;
#153 = DATE_AND_TIME ( #257, #147 ) ;
#154 = EDGE_LOOP ( 'NONE', ( #49, #211, #190, #295 ) ) ;
#155 = EDGE_CURVE ( 'NONE', #167, #158, #106, .T. ) ;
#156 = DATE_AND_TIME ( #148, #150 ) ;
#157 = CARTESIAN_POINT ( 'NONE',  ( 1.324098064010971834E-13, -0.5750000000000056177, 38.00000000000000000 ) ) ;
#158 = VERTEX_POINT ( 'NONE', #270 ) ;
#159 = AXIS2_PLACEMENT_3D ( 'NONE', #306, #281, #333 ) ;
#160 = APPROVAL_DATE_TIME ( #44, #133 ) ;
#161 = EDGE_LOOP ( 'NONE', ( #108, #4, #186, #63 ) ) ;
#162 = EDGE_LOOP ( 'NONE', ( #231, #183, #163, #284 ) ) ;
#163 = ORIENTED_EDGE ( 'NONE', *, *, #109, .T. ) ;
#164 = DIRECTION ( 'NONE',  ( 4.970141791967083659E-31, 1.000000000000000000, 1.398970545142592951E-16 ) ) ;
#165 = CONICAL_SURFACE ( 'NONE', #80, 0.5750000000000009548, 0.7853981633974512766 ) ;
#166 = DIRECTION ( 'NONE',  ( -3.491481338843133355E-15, 1.224646799147353207E-16, -1.000000000000000000 ) ) ;
#167 = VERTEX_POINT ( 'NONE', #301 ) ;
#168 = MANIFOLD_SOLID_BREP ( 'Corps-Déplacer/Copier1[2]', #88 ) ;
#169 = DIRECTION ( 'NONE',  ( -3.491481338843133355E-15, 1.224646799147353207E-16, -1.000000000000000000 ) ) ;
#170 = CARTESIAN_POINT ( 'NONE',  ( 8.179557345586318914E-14, -0.7749999999999984679, 9.000000000000000000 ) ) ;
#171 = DIRECTION ( 'NONE',  ( -3.491481338843133355E-15, 1.224646799147353207E-16, -1.000000000000000000 ) ) ;
#172 = DIRECTION ( 'NONE',  ( 0.0000000000000000000, 1.000000000000000000, 0.0000000000000000000 ) ) ;
#173 = CC_DESIGN_APPROVAL ( #122, ( #176 ) ) ;
#174 = EDGE_CURVE ( 'NONE', #136, #240, #95, .T. ) ;
#175 = CIRCLE ( 'NONE', #75, 0.7750000000000009104 ) ;
#176 = SECURITY_CLASSIFICATION ( '', '', #104 ) ;
#177 = PRODUCT_RELATED_PRODUCT_CATEGORY ( 'detail', '', ( #194 ) ) ;
#178 = CALENDAR_DATE ( 2021, 3, 9 ) ;
#179 = CARTESIAN_POINT ( 'NONE',  ( 3.142333204958820020E-14, 0.7749999999999962474, 9.000000000000000000 ) ) ;
#180 = DIRECTION ( 'NONE',  ( 0.0000000000000000000, 0.0000000000000000000, 1.000000000000000000 ) ) ;
#181 = PRODUCT_DEFINITION_FORMATION_WITH_SPECIFIED_SOURCE ( 'ANY', '', #194, .NOT_KNOWN. ) ;
#182 = PERSON_AND_ORGANIZATION_ROLE ( 'design_owner' ) ;
#183 = ORIENTED_EDGE ( 'NONE', *, *, #64, .T. ) ;
#184 = CARTESIAN_POINT ( 'NONE',  ( 3.142333204958820020E-14, -1.102182119232617714E-15, 9.000000000000000000 ) ) ;
#185 = AXIS2_PLACEMENT_3D ( 'NONE', #146, #202, #45 ) ;
#186 = ORIENTED_EDGE ( 'NONE', *, *, #299, .T. ) ;
#187 = DESIGN_CONTEXT ( 'detailed design', #287, 'design' ) ;
#188 = DIRECTION ( 'NONE',  ( 4.275831445896958607E-31, 1.000000000000000000, 1.224646799147353207E-16 ) ) ;
#189 = EDGE_CURVE ( 'NONE', #105, #131, #283, .T. ) ;
#190 = ORIENTED_EDGE ( 'NONE', *, *, #332, .F. ) ;
#191 = CONICAL_SURFACE ( 'NONE', #62, 0.7749999999999963585, 1.029744258676649871 ) ;
#192 = CYLINDRICAL_SURFACE ( 'NONE', #70, 0.7749999999999992450 ) ;
#193 = LINE ( 'NONE', #298, #134 ) ;
#194 = PRODUCT ( '267', '267', '', ( #126 ) ) ;
#195 = DIRECTION ( 'NONE',  ( -2.382254525458708792E-15, -0.7071067811865495711, -0.7071067811865455743 ) ) ;
#196 = ADVANCED_FACE ( 'NONE', ( #269 ), #191, .T. ) ;
#197 = AXIS2_PLACEMENT_3D ( 'NONE', #259, #99, #203 ) ;
#198 = PERSON_AND_ORGANIZATION ( #297, #121 ) ;
#199 = LOCAL_TIME ( 9, 21, 41.00000000000000000, #54 ) ;
#200 = AXIS2_PLACEMENT_3D ( 'NONE', #294, #248, #172 ) ;
#201 = CIRCLE ( 'NONE', #266, 0.7749999999999973577 ) ;
#202 = DIRECTION ( 'NONE',  ( -3.491481338843133355E-15, 1.224646799147353207E-16, -1.000000000000000000 ) ) ;
#203 = DIRECTION ( 'NONE',  ( -4.275831445896958607E-31, -1.000000000000000000, -1.224646799147353207E-16 ) ) ;
#204 = ORIENTED_EDGE ( 'NONE', *, *, #205, .T. ) ;
#205 = EDGE_CURVE ( 'NONE', #139, #8, #201, .T. ) ;
#206 = ORIENTED_EDGE ( 'NONE', *, *, #189, .F. ) ;
#207 = APPLICATION_PROTOCOL_DEFINITION ( 'international standard', 'config_control_design', 1994, #217 ) ;
#208 = ORIENTED_EDGE ( 'NONE', *, *, #189, .T. ) ;
#209 = CC_DESIGN_PERSON_AND_ORGANIZATION_ASSIGNMENT ( #308, #182, ( #194 ) ) ;
#210 = DATE_AND_TIME ( #3, #199 ) ;
#211 = ORIENTED_EDGE ( 'NONE', *, *, #7, .T. ) ;
#212 = CARTESIAN_POINT ( 'NONE',  ( 1.625867569899866507E-15, -5.702775762149976126E-17, 0.4656669797463620641 ) ) ;
#213 = CARTESIAN_POINT ( 'NONE',  ( 0.0000000000000000000, 0.0000000000000000000, 0.0000000000000000000 ) ) ;
#214 = CARTESIAN_POINT ( 'NONE',  ( 1.720777696833786207E-15, 0.7749999999999962474, 0.4656669797463621752 ) ) ;
#215 = FACE_OUTER_BOUND ( 'NONE', #309, .T. ) ;
#216 = DIRECTION ( 'NONE',  ( 0.0000000000000000000, 1.000000000000000000, 0.0000000000000000000 ) ) ;
#217 = APPLICATION_CONTEXT ( 'configuration controlled 3d designs of mechanical parts and assemblies' ) ;
#218 = DIRECTION ( 'NONE',  ( 1.903218546456021928E-15, 0.8571673007021098911, 0.5150380749100583744 ) ) ;
#219 = DIRECTION ( 'NONE',  ( -3.491481338843133355E-15, 1.224646799147353207E-16, -1.000000000000000000 ) ) ;
#220 = DIRECTION ( 'NONE',  ( 3.491481338843133355E-15, -1.224646799147353207E-16, 1.000000000000000000 ) ) ;
#221 = CARTESIAN_POINT ( 'NONE',  ( 1.326762908760390423E-13, -4.653657836759941941E-15, 38.00000000000000000 ) ) ;
#222 = CARTESIAN_POINT ( 'NONE',  ( 1.625867569899866507E-15, -5.702775762149976126E-17, 0.4656669797463620641 ) ) ;
#223 = AXIS2_PLACEMENT_3D ( 'NONE', #322, #85, #164 ) ;
#224 = APPROVAL_PERSON_ORGANIZATION ( #198, #133, #97 ) ;
#225 =( NAMED_UNIT ( * ) SI_UNIT ( $, .STERADIAN. ) SOLID_ANGLE_UNIT ( ) );
#226 = AXIS2_PLACEMENT_3D ( 'NONE', #100, #110, #37 ) ;
#227 = AXIS2_PLACEMENT_3D ( 'NONE', #276, #180, #43 ) ;
#228 = CARTESIAN_POINT ( 'NONE',  ( 1.625867569899866113E-15, -0.7749999999999964695, 0.4656669797463619531 ) ) ;
#229 = ADVANCED_FACE ( 'NONE', ( #135 ), #144, .T. ) ;
#230 =( LENGTH_UNIT ( ) NAMED_UNIT ( * ) SI_UNIT ( .MILLI., .METRE. ) );
#231 = ORIENTED_EDGE ( 'NONE', *, *, #250, .F. ) ;
#232 = PERSON_AND_ORGANIZATION_ROLE ( 'creator' ) ;
#233 = ORIENTED_EDGE ( 'NONE', *, *, #331, .T. ) ;
#234 = CIRCLE ( 'NONE', #334, 0.7749999999999973577 ) ;
#235 = APPLICATION_PROTOCOL_DEFINITION ( 'international standard', 'config_control_design', 1994, #287 ) ;
#236 = PRODUCT_DEFINITION ( 'UNKNOWN', '', #181, #187 ) ;
#237 = ORIENTED_EDGE ( 'NONE', *, *, #319, .F. ) ;
#238 = EDGE_LOOP ( 'NONE', ( #311, #292, #290 ) ) ;
#239 = DATE_AND_TIME ( #132, #274 ) ;
#240 = VERTEX_POINT ( 'NONE', #111 ) ;
#241 = CONICAL_SURFACE ( 'NONE', #254, 0.7749999999999963585, 1.029744258676649871 ) ;
#242 = DIRECTION ( 'NONE',  ( -3.491481338843133355E-15, 1.224646799147353207E-16, -1.000000000000000000 ) ) ;
#243 = DIRECTION ( 'NONE',  ( 3.491481338843133355E-15, -1.224646799147353207E-16, 1.000000000000000000 ) ) ;
#244 = CC_DESIGN_PERSON_AND_ORGANIZATION_ASSIGNMENT ( #5, #103, ( #181 ) ) ;
#245 = DIRECTION ( 'NONE',  ( -3.491481338843133355E-15, 1.224646799147353207E-16, -1.000000000000000000 ) ) ;
#246 = DIRECTION ( 'NONE',  ( -3.491481338843133355E-15, 1.224646799147353207E-16, -1.000000000000000000 ) ) ;
#247 = LINE ( 'NONE', #82, #142 ) ;
#248 = DIRECTION ( 'NONE',  ( -3.491481338843133355E-15, 1.224646799147353207E-16, -1.000000000000000000 ) ) ;
#249 = EDGE_CURVE ( 'NONE', #131, #323, #94, .T. ) ;
#250 = EDGE_CURVE ( 'NONE', #323, #8, #61, .T. ) ;
#251 = VECTOR ( 'NONE', #245, 1000.000000000000000 ) ;
#252 = APPROVAL_STATUS ( 'not_yet_approved' ) ;
#253 = APPROVAL_ROLE ( '' ) ;
#254 = AXIS2_PLACEMENT_3D ( 'NONE', #212, #243, #114 ) ;
#255 = ADVANCED_FACE ( 'NONE', ( #31 ), #115, .T. ) ;
#256 = CARTESIAN_POINT ( 'NONE',  ( 8.179557345586302505E-14, -0.7750000000000055733, 37.79999999999999716 ) ) ;
#257 = CALENDAR_DATE ( 2021, 3, 9 ) ;
#258 = EDGE_LOOP ( 'NONE', ( #60, #261 ) ) ;
#259 = CARTESIAN_POINT ( 'NONE',  ( 3.142333204958820020E-14, 5.811569157814661966E-33, 9.000000000000000000 ) ) ;
#260 = CARTESIAN_POINT ( 'NONE',  ( 3.142333204958820020E-14, 0.7749999999999962474, 9.000000000000000000 ) ) ;
#261 = ORIENTED_EDGE ( 'NONE', *, *, #145, .F. ) ;
#262 = APPROVAL_ROLE ( '' ) ;
#263 = CARTESIAN_POINT ( 'NONE',  ( 1.327467080669900194E-13, -0.5750000000000056177, 38.00000000000000000 ) ) ;
#264 = FACE_OUTER_BOUND ( 'NONE', #154, .T. ) ;
#265 = ADVANCED_FACE ( 'NONE', ( #300 ), #273, .T. ) ;
#266 = AXIS2_PLACEMENT_3D ( 'NONE', #92, #321, #35 ) ;
#267 = DIRECTION ( 'NONE',  ( -3.491481338843133355E-15, 1.224646799147353207E-16, -1.000000000000000000 ) ) ;
#268 = CARTESIAN_POINT ( 'NONE',  ( 1.319779946082704535E-13, 0.7749999999999962474, 37.79999999999999716 ) ) ;
#269 = FACE_OUTER_BOUND ( 'NONE', #238, .T. ) ;
#270 = CARTESIAN_POINT ( 'NONE',  ( 1.720777696833786207E-15, 0.7749999999999962474, 0.4656669797463621752 ) ) ;
#271 = CC_DESIGN_PERSON_AND_ORGANIZATION_ASSIGNMENT ( #29, #79, ( #181 ) ) ;
#272 = LINE ( 'NONE', #41, #116 ) ;
#273 = CONICAL_SURFACE ( 'NONE', #52, 0.5750000000000009548, 0.7853981633974512766 ) ;
#274 = LOCAL_TIME ( 9, 21, 41.00000000000000000, #30 ) ;
#275 = DIRECTION ( 'NONE',  ( 4.275831445896958607E-31, 1.000000000000000000, 1.224646799147353207E-16 ) ) ;
#276 = CARTESIAN_POINT ( 'NONE',  ( 0.0000000000000000000, 0.0000000000000000000, 0.0000000000000000000 ) ) ;
#277 = CIRCLE ( 'NONE', #226, 0.7749999999999973577 ) ;
#278 = APPROVAL_PERSON_ORGANIZATION ( #304, #324, #253 ) ;
#279 = CARTESIAN_POINT ( 'NONE',  ( 1.326762908760390423E-13, -4.653657836759941941E-15, 38.00000000000000000 ) ) ;
#280 = ADVANCED_FACE ( 'NONE', ( #87 ), #192, .T. ) ;
#281 = DIRECTION ( 'NONE',  ( 3.491481338843133355E-15, -1.224646799147353207E-16, 1.000000000000000000 ) ) ;
#282 = MANIFOLD_SOLID_BREP ( 'Corps-Déplacer/Copier1[1]', #20 ) ;
#283 = CIRCLE ( 'NONE', #200, 0.5750000000000009548 ) ;
#284 = ORIENTED_EDGE ( 'NONE', *, *, #331, .F. ) ;
#285 = CC_DESIGN_DATE_AND_TIME_ASSIGNMENT ( #210, #47, ( #176 ) ) ;
#286 = DIRECTION ( 'NONE',  ( 0.0000000000000000000, 1.000000000000000000, 0.0000000000000000000 ) ) ;
#287 = APPLICATION_CONTEXT ( 'configuration controlled 3d designs of mechanical parts and assemblies' ) ;
#288 = ORIENTED_EDGE ( 'NONE', *, *, #250, .T. ) ;
#289 = PERSON_AND_ORGANIZATION ( #297, #121 ) ;
#290 = ORIENTED_EDGE ( 'NONE', *, *, #155, .T. ) ;
#291 = EDGE_CURVE ( 'NONE', #136, #158, #141, .T. ) ;
#292 = ORIENTED_EDGE ( 'NONE', *, *, #319, .T. ) ;
#293 = CARTESIAN_POINT ( 'NONE',  ( 1.326762908760390423E-13, 0.5749999999999962919, 38.00000000000000000 ) ) ;
#294 = CARTESIAN_POINT ( 'NONE',  ( 1.326762908760390423E-13, -4.653657836759941941E-15, 38.00000000000000000 ) ) ;
#295 = ORIENTED_EDGE ( 'NONE', *, *, #291, .F. ) ;
#296 = VECTOR ( 'NONE', #171, 1000.000000000000000 ) ;
#297 = PERSON ( 'UNSPECIFIED', 'UNSPECIFIED', 'UNSPECIFIED', ('UNSPECIFIED'), ('UNSPECIFIED'), ('UNSPECIFIED') ) ;
#298 = CARTESIAN_POINT ( 'NONE',  ( 9.491012693391915803E-17, -0.7749999999999968026, -9.491012693391981131E-17 ) ) ;
#299 = EDGE_CURVE ( 'NONE', #105, #13, #272, .T. ) ;
#300 = FACE_OUTER_BOUND ( 'NONE', #161, .T. ) ;
#301 = CARTESIAN_POINT ( 'NONE',  ( 1.625867569899866113E-15, -0.7749999999999964695, 0.4656669797463619531 ) ) ;
#302 = DIRECTION ( 'NONE',  ( 0.0000000000000000000, 1.000000000000000000, 0.0000000000000000000 ) ) ;
#303 = AXIS2_PLACEMENT_3D ( 'NONE', #119, #267, #143 ) ;
#304 = PERSON_AND_ORGANIZATION ( #297, #121 ) ;
#305 = CC_DESIGN_PERSON_AND_ORGANIZATION_ASSIGNMENT ( #127, #232, ( #236 ) ) ;
#306 = CARTESIAN_POINT ( 'NONE',  ( 3.142333204958820020E-14, 5.811569157814661966E-33, 9.000000000000000000 ) ) ;
#307 = ADVANCED_FACE ( 'NONE', ( #118 ), #336, .T. ) ;
#308 = PERSON_AND_ORGANIZATION ( #297, #121 ) ;
#309 = EDGE_LOOP ( 'NONE', ( #237, #66, #77 ) ) ;
#310 = VECTOR ( 'NONE', #218, 1000.000000000000114 ) ;
#311 = ORIENTED_EDGE ( 'NONE', *, *, #83, .F. ) ;
#312 = CARTESIAN_POINT ( 'NONE',  ( 0.0000000000000000000, 0.0000000000000000000, 0.0000000000000000000 ) ) ;
#313 = PERSON_AND_ORGANIZATION_ROLE ( 'classification_officer' ) ;
#314 = ORIENTED_EDGE ( 'NONE', *, *, #145, .T. ) ;
#315 = UNCERTAINTY_MEASURE_WITH_UNIT (LENGTH_MEASURE( 1.000000000000000082E-05 ), #230, 'distance_accuracy_value', 'NONE');
#316 = ORIENTED_EDGE ( 'NONE', *, *, #205, .F. ) ;
#317 = AXIS2_PLACEMENT_3D ( 'NONE', #335, #22, #102 ) ;
#318 = EDGE_LOOP ( 'NONE', ( #1, #314, #89, #130 ) ) ;
#319 = EDGE_CURVE ( 'NONE', #325, #167, #21, .T. ) ;
#320 = ORIENTED_EDGE ( 'NONE', *, *, #299, .F. ) ;
#321 = DIRECTION ( 'NONE',  ( -3.491481338843133355E-15, 1.224646799147353207E-16, -1.000000000000000000 ) ) ;
#322 = CARTESIAN_POINT ( 'NONE',  ( 1.625867569899866507E-15, -5.702775762149976126E-17, 0.4656669797463620641 ) ) ;
#323 = VERTEX_POINT ( 'NONE', #256 ) ;
#324 = APPROVAL ( #48, 'UNSPECIFIED' ) ;
#325 = VERTEX_POINT ( 'NONE', #312 ) ;
#326 = CIRCLE ( 'NONE', #185, 0.7750000000000009104 ) ;
#327 = DIRECTION ( 'NONE',  ( 0.0000000000000000000, 1.000000000000000000, 0.0000000000000000000 ) ) ;
#328 = CARTESIAN_POINT ( 'NONE',  ( 3.313769370570129389E-31, 0.7749999999999968026, 9.491012693391949084E-17 ) ) ;
#329 = DIRECTION ( 'NONE',  ( -3.491481338843133355E-15, 1.224646799147353207E-16, -1.000000000000000000 ) ) ;
#330 = CC_DESIGN_APPROVAL ( #324, ( #236 ) ) ;
#331 = EDGE_CURVE ( 'NONE', #8, #139, #234, .T. ) ;
#332 = EDGE_CURVE ( 'NONE', #158, #167, #96, .T. ) ;
#333 = DIRECTION ( 'NONE',  ( -4.275831445896958607E-31, -1.000000000000000000, -1.224646799147353207E-16 ) ) ;
#334 = AXIS2_PLACEMENT_3D ( 'NONE', #184, #76, #286 ) ;
#335 = CARTESIAN_POINT ( 'NONE',  ( 1.625867569899866507E-15, -5.702775762149976126E-17, 0.4656669797463620641 ) ) ;
#336 = PLANE ( 'NONE',  #197 ) ;
#337 = AXIS2_PLACEMENT_3D ( 'NONE', #59, #138, #275 ) ;
ENDSEC;
END-ISO-10303-21;
