ISO-10303-21;
HEADER;
FILE_DESCRIPTION (( 'STEP AP203' ),
    '1' );
FILE_NAME ('265.step',
    '2021-09-03T07:21:40',
    ( '' ),
    ( '' ),
    'SwSTEP 2.0',
    'SolidWorks 2019',
    '' );
FILE_SCHEMA (( 'CONFIG_CONTROL_DESIGN' ));
ENDSEC;

DATA;
#1 = EDGE_CURVE ( 'NONE', #97, #282, #224, .T. ) ;
#2 = DATE_AND_TIME ( #129, #104 ) ;
#3 = DIRECTION ( 'NONE',  ( 0.0000000000000000000, 1.000000000000000000, 0.0000000000000000000 ) ) ;
#4 = CIRCLE ( 'NONE', #187, 0.7249999999999963141 ) ;
#5 = PRODUCT_DEFINITION_SHAPE ( 'NONE', 'NONE',  #235 ) ;
#6 = CARTESIAN_POINT ( 'NONE',  ( 1.520972887970842492E-15, -5.334854745237073247E-17, 0.4356239487949837841 ) ) ;
#7 = AXIS2_PLACEMENT_3D ( 'NONE', #148, #256, #22 ) ;
#8 = ORIENTED_EDGE ( 'NONE', *, *, #316, .F. ) ;
#9 = CARTESIAN_POINT ( 'NONE',  ( 1.047444401652940007E-13, 3.936869429487320114E-33, 30.00000000000000000 ) ) ;
#10 = CARTESIAN_POINT ( 'NONE',  ( 2.793185071074506684E-14, -9.797174393178825657E-16, 8.000000000000000000 ) ) ;
#11 = CARTESIAN_POINT ( 'NONE',  ( 6.607778419707325888E-14, -0.7250000000000036415, 29.80000000000000071 ) ) ;
#12 = CIRCLE ( 'NONE', #320, 0.7249999999999972022 ) ;
#13 = LOCAL_TIME ( 9, 21, 40.00000000000000000, #30 ) ;
#14 = ORIENTED_EDGE ( 'NONE', *, *, #283, .T. ) ;
#15 = CARTESIAN_POINT ( 'NONE',  ( 0.0000000000000000000, 0.0000000000000000000, 0.0000000000000000000 ) ) ;
#16 = DIRECTION ( 'NONE',  ( 3.491481338843133355E-15, -1.224646799147353207E-16, 1.000000000000000000 ) ) ;
#17 = DIRECTION ( 'NONE',  ( 5.312910191413091844E-31, 1.000000000000000000, 1.495451272393806938E-16 ) ) ;
#18 = ORIENTED_EDGE ( 'NONE', *, *, #70, .T. ) ;
#19 = CARTESIAN_POINT ( 'NONE',  ( 1.520972887970842098E-15, -0.7249999999999963141, 0.4356239487949836731 ) ) ;
#20 = ORIENTED_EDGE ( 'NONE', *, *, #170, .T. ) ;
#21 = APPROVAL_PERSON_ORGANIZATION ( #308, #245, #26 ) ;
#22 = DIRECTION ( 'NONE',  ( -5.312910191413091844E-31, -1.000000000000000000, -1.495451272393806938E-16 ) ) ;
#23 = ORIENTED_EDGE ( 'NONE', *, *, #170, .F. ) ;
#24 = ORIENTED_EDGE ( 'NONE', *, *, #183, .T. ) ;
#25 = DIRECTION ( 'NONE',  ( 3.491481338843133355E-15, -1.224646799147353207E-16, 1.000000000000000000 ) ) ;
#26 = APPROVAL_ROLE ( '' ) ;
#27 = DIRECTION ( 'NONE',  ( 0.0000000000000000000, 1.000000000000000000, 0.0000000000000000000 ) ) ;
#28 = FACE_OUTER_BOUND ( 'NONE', #53, .T. ) ;
#29 = AXIS2_PLACEMENT_3D ( 'NONE', #215, #304, #222 ) ;
#30 = COORDINATED_UNIVERSAL_TIME_OFFSET ( 1, 0, .AHEAD. ) ;
#31 = CARTESIAN_POINT ( 'NONE',  ( 2.793185071074506684E-14, -9.797174393178825657E-16, 8.000000000000000000 ) ) ;
#32 = ORIENTED_EDGE ( 'NONE', *, *, #98, .F. ) ;
#33 = ADVANCED_FACE ( 'NONE', ( #83 ), #337, .T. ) ;
#34 = APPROVAL_DATE_TIME ( #54, #84 ) ;
#35 = DIRECTION ( 'NONE',  ( -3.491481338843133355E-15, 1.224646799147353207E-16, -1.000000000000000000 ) ) ;
#36 = AXIS2_PLACEMENT_3D ( 'NONE', #9, #322, #161 ) ;
#37 = DIRECTION ( 'NONE',  ( -3.491481338843133355E-15, 1.224646799147353207E-16, -1.000000000000000000 ) ) ;
#38 = CARTESIAN_POINT ( 'NONE',  ( 1.047444401652940007E-13, 0.5249999999999962474, 30.00000000000000000 ) ) ;
#39 = ORIENTED_EDGE ( 'NONE', *, *, #220, .T. ) ;
#40 = DIRECTION ( 'NONE',  ( 1.798245827342160317E-15, -0.8571673007021098911, 0.5150380749100582634 ) ) ;
#41 = CYLINDRICAL_SURFACE ( 'NONE', #324, 0.7249999999999986455 ) ;
#42 = DIRECTION ( 'NONE',  ( -3.491481338843133355E-15, 1.224646799147353207E-16, -1.000000000000000000 ) ) ;
#43 = DIRECTION ( 'NONE',  ( -3.491481338843133355E-15, 1.224646799147353207E-16, -1.000000000000000000 ) ) ;
#44 = DIRECTION ( 'NONE',  ( 0.0000000000000000000, 0.0000000000000000000, 1.000000000000000000 ) ) ;
#45 = CARTESIAN_POINT ( 'NONE',  ( 2.793185071074506684E-14, 5.436629212149198933E-33, 8.000000000000000000 ) ) ;
#46 = DIRECTION ( 'NONE',  ( 0.0000000000000000000, 1.000000000000000000, 0.0000000000000000000 ) ) ;
#47 = DIRECTION ( 'NONE',  ( -3.491481338843133355E-15, 1.224646799147353207E-16, -1.000000000000000000 ) ) ;
#48 = CLOSED_SHELL ( 'NONE', ( #184, #62, #82, #250, #262, #284 ) ) ;
#49 =( GEOMETRIC_REPRESENTATION_CONTEXT ( 3 ) GLOBAL_UNCERTAINTY_ASSIGNED_CONTEXT ( ( #238 ) ) GLOBAL_UNIT_ASSIGNED_CONTEXT ( ( #243, #116, #163 ) ) REPRESENTATION_CONTEXT ( 'NONE', 'WORKASPACE' ) );
#50 = ORIENTED_EDGE ( 'NONE', *, *, #228, .T. ) ;
#51 = ORIENTED_EDGE ( 'NONE', *, *, #228, .F. ) ;
#52 = CALENDAR_DATE ( 2021, 3, 9 ) ;
#53 = EDGE_LOOP ( 'NONE', ( #24, #135 ) ) ;
#54 = DATE_AND_TIME ( #101, #85 ) ;
#55 = DIRECTION ( 'NONE',  ( -3.491481338843133355E-15, 1.224646799147353207E-16, -1.000000000000000000 ) ) ;
#56 = DESIGN_CONTEXT ( 'detailed design', #291, 'design' ) ;
#57 = APPROVAL_DATE_TIME ( #287, #245 ) ;
#58 = CIRCLE ( 'NONE', #73, 0.5250000000000000222 ) ;
#59 = CARTESIAN_POINT ( 'NONE',  ( 8.878689293818263975E-17, -0.7249999999999986455, -8.878689293818324372E-17 ) ) ;
#60 = CC_DESIGN_PERSON_AND_ORGANIZATION_ASSIGNMENT ( #203, #332, ( #303 ) ) ;
#61 = COORDINATED_UNIVERSAL_TIME_OFFSET ( 1, 0, .AHEAD. ) ;
#62 = ADVANCED_FACE ( 'NONE', ( #225 ), #234, .T. ) ;
#63 = AXIS2_PLACEMENT_3D ( 'NONE', #205, #35, #263 ) ;
#64 = VECTOR ( 'NONE', #298, 1000.000000000000000 ) ;
#65 = EDGE_CURVE ( 'NONE', #69, #329, #210, .T. ) ;
#66 = CARTESIAN_POINT ( 'NONE',  ( 2.793185071074506684E-14, 0.7249999999999963141, 8.000000000000000000 ) ) ;
#67 = AXIS2_PLACEMENT_3D ( 'NONE', #189, #140, #185 ) ;
#68 = CARTESIAN_POINT ( 'NONE',  ( 0.0000000000000000000, 0.0000000000000000000, 0.0000000000000000000 ) ) ;
#69 = VERTEX_POINT ( 'NONE', #335 ) ;
#70 = EDGE_CURVE ( 'NONE', #95, #97, #266, .T. ) ;
#71 = EDGE_CURVE ( 'NONE', #95, #144, #58, .T. ) ;
#72 = PERSON_AND_ORGANIZATION_ROLE ( 'creator' ) ;
#73 = AXIS2_PLACEMENT_3D ( 'NONE', #149, #136, #268 ) ;
#74 = CARTESIAN_POINT ( 'NONE',  ( 1.044718324563563936E-13, -0.5250000000000036859, 30.00000000000000000 ) ) ;
#75 = ORIENTED_EDGE ( 'NONE', *, *, #244, .F. ) ;
#76 = DIRECTION ( 'NONE',  ( 4.275831445896958607E-31, 1.000000000000000000, 1.224646799147353207E-16 ) ) ;
#77 = AXIS2_PLACEMENT_3D ( 'NONE', #10, #93, #46 ) ;
#78 = PERSON_AND_ORGANIZATION_ROLE ( 'design_supplier' ) ;
#79 = CALENDAR_DATE ( 2021, 3, 9 ) ;
#80 = EDGE_CURVE ( 'NONE', #329, #69, #12, .T. ) ;
#81 = DATE_AND_TIME ( #264, #188 ) ;
#82 = ADVANCED_FACE ( 'NONE', ( #28 ), #127, .F. ) ;
#83 = FACE_OUTER_BOUND ( 'NONE', #160, .T. ) ;
#84 = APPROVAL ( #175, 'UNSPECIFIED' ) ;
#85 = LOCAL_TIME ( 9, 21, 40.00000000000000000, #281 ) ;
#86 = CARTESIAN_POINT ( 'NONE',  ( 1.047444401652940007E-13, -3.673940397442059178E-15, 30.00000000000000000 ) ) ;
#87 = DIRECTION ( 'NONE',  ( 4.275831445896958607E-31, 1.000000000000000000, 1.224646799147353207E-16 ) ) ;
#88 = CARTESIAN_POINT ( 'NONE',  ( 3.099977798275289253E-31, 0.7249999999999986455, 8.878689293818294790E-17 ) ) ;
#89 = EDGE_LOOP ( 'NONE', ( #207, #125, #18, #292 ) ) ;
#90 = CARTESIAN_POINT ( 'NONE',  ( 0.0000000000000000000, 0.0000000000000000000, 0.0000000000000000000 ) ) ;
#91 = VECTOR ( 'NONE', #290, 1000.000000000000114 ) ;
#92 = PRODUCT_DEFINITION_FORMATION_WITH_SPECIFIED_SOURCE ( 'ANY', '', #271, .NOT_KNOWN. ) ;
#93 = DIRECTION ( 'NONE',  ( -3.491481338843133355E-15, 1.224646799147353207E-16, -1.000000000000000000 ) ) ;
#94 = DIRECTION ( 'NONE',  ( -3.491481338843133355E-15, 1.224646799147353207E-16, -1.000000000000000000 ) ) ;
#95 = VERTEX_POINT ( 'NONE', #38 ) ;
#96 = FACE_OUTER_BOUND ( 'NONE', #89, .T. ) ;
#97 = VERTEX_POINT ( 'NONE', #138 ) ;
#98 = EDGE_CURVE ( 'NONE', #119, #314, #200, .T. ) ;
#99 = EDGE_LOOP ( 'NONE', ( #192, #321, #305 ) ) ;
#100 = ORIENTED_EDGE ( 'NONE', *, *, #80, .T. ) ;
#101 = CALENDAR_DATE ( 2021, 3, 9 ) ;
#102 = ORIENTED_EDGE ( 'NONE', *, *, #71, .F. ) ;
#103 = APPLICATION_PROTOCOL_DEFINITION ( 'international standard', 'config_control_design', 1994, #291 ) ;
#104 = LOCAL_TIME ( 9, 21, 40.00000000000000000, #61 ) ;
#105 = EDGE_CURVE ( 'NONE', #282, #97, #167, .T. ) ;
#106 = CC_DESIGN_PERSON_AND_ORGANIZATION_ASSIGNMENT ( #336, #108, ( #92 ) ) ;
#107 = CARTESIAN_POINT ( 'NONE',  ( 2.793185071074506684E-14, 5.436629212149198933E-33, 8.000000000000000000 ) ) ;
#108 = PERSON_AND_ORGANIZATION_ROLE ( 'creator' ) ;
#109 = EDGE_LOOP ( 'NONE', ( #100, #195, #75, #265 ) ) ;
#110 = DIRECTION ( 'NONE',  ( -4.275831445896958607E-31, -1.000000000000000000, -1.224646799147353207E-16 ) ) ;
#111 = CIRCLE ( 'NONE', #77, 0.7249999999999972022 ) ;
#112 = ORIENTED_EDGE ( 'NONE', *, *, #70, .F. ) ;
#113 = AXIS2_PLACEMENT_3D ( 'NONE', #186, #94, #301 ) ;
#114 = CARTESIAN_POINT ( 'NONE',  ( 1.609759780909025317E-15, 0.7249999999999963141, 0.4356239487949838951 ) ) ;
#115 = DIRECTION ( 'NONE',  ( -3.491481338843133355E-15, 1.224646799147353207E-16, -1.000000000000000000 ) ) ;
#116 =( NAMED_UNIT ( * ) PLANE_ANGLE_UNIT ( ) SI_UNIT ( $, .RADIAN. ) );
#117 = AXIS2_PLACEMENT_3D ( 'NONE', #307, #204, #226 ) ;
#118 = VECTOR ( 'NONE', #141, 1000.000000000000114 ) ;
#119 = VERTEX_POINT ( 'NONE', #19 ) ;
#120 = FACE_OUTER_BOUND ( 'NONE', #109, .T. ) ;
#121 = VERTEX_POINT ( 'NONE', #122 ) ;
#122 = CARTESIAN_POINT ( 'NONE',  ( 0.0000000000000000000, 0.0000000000000000000, 0.0000000000000000000 ) ) ;
#123 = DIRECTION ( 'NONE',  ( -4.275831445896958607E-31, -1.000000000000000000, -1.224646799147353207E-16 ) ) ;
#124 = AXIS2_PLACEMENT_3D ( 'NONE', #31, #130, #27 ) ;
#125 = ORIENTED_EDGE ( 'NONE', *, *, #270, .T. ) ;
#126 = DATE_TIME_ROLE ( 'creation_date' ) ;
#127 = PLANE ( 'NONE',  #275 ) ;
#128 = CC_DESIGN_SECURITY_CLASSIFICATION ( #303, ( #92 ) ) ;
#129 = CALENDAR_DATE ( 2021, 3, 9 ) ;
#130 = DIRECTION ( 'NONE',  ( -3.491481338843133355E-15, 1.224646799147353207E-16, -1.000000000000000000 ) ) ;
#131 = CARTESIAN_POINT ( 'NONE',  ( 1.047444401652940007E-13, 0.5249999999999962474, 30.00000000000000000 ) ) ;
#132 = DATE_AND_TIME ( #79, #13 ) ;
#133 = CARTESIAN_POINT ( 'NONE',  ( 1.040461438975253740E-13, -3.649447461459112464E-15, 29.80000000000000071 ) ) ;
#134 = SHAPE_DEFINITION_REPRESENTATION ( #5, #208 ) ;
#135 = ORIENTED_EDGE ( 'NONE', *, *, #202, .T. ) ;
#136 = DIRECTION ( 'NONE',  ( -3.491481338843133355E-15, 1.224646799147353207E-16, -1.000000000000000000 ) ) ;
#137 = CC_DESIGN_APPROVAL ( #193, ( #92 ) ) ;
#138 = CARTESIAN_POINT ( 'NONE',  ( 1.040461438975253740E-13, 0.7249999999999963141, 29.80000000000000071 ) ) ;
#139 = LINE ( 'NONE', #164, #64 ) ;
#140 = DIRECTION ( 'NONE',  ( -3.491481338843133355E-15, 1.224646799147353207E-16, -1.000000000000000000 ) ) ;
#141 = DIRECTION ( 'NONE',  ( -2.382254525458708792E-15, -0.7071067811865495711, -0.7071067811865455743 ) ) ;
#142 = ORIENTED_EDGE ( 'NONE', *, *, #1, .F. ) ;
#143 = CYLINDRICAL_SURFACE ( 'NONE', #294, 0.7249999999999966471 ) ;
#144 = VERTEX_POINT ( 'NONE', #74 ) ;
#145 = DIRECTION ( 'NONE',  ( 4.275831445896958607E-31, 1.000000000000000000, 1.224646799147353207E-16 ) ) ;
#146 = ORIENTED_EDGE ( 'NONE', *, *, #1, .T. ) ;
#147 = ADVANCED_FACE ( 'NONE', ( #172 ), #309, .T. ) ;
#148 = CARTESIAN_POINT ( 'NONE',  ( 1.520972887970842492E-15, -5.334854745237073247E-17, 0.4356239487949837841 ) ) ;
#149 = CARTESIAN_POINT ( 'NONE',  ( 1.047444401652940007E-13, -3.673940397442059178E-15, 30.00000000000000000 ) ) ;
#150 = ORIENTED_EDGE ( 'NONE', *, *, #202, .F. ) ;
#151 = AXIS2_PLACEMENT_3D ( 'NONE', #6, #211, #17 ) ;
#152 = COORDINATED_UNIVERSAL_TIME_OFFSET ( 1, 0, .AHEAD. ) ;
#153 = VERTEX_POINT ( 'NONE', #323 ) ;
#154 = SECURITY_CLASSIFICATION_LEVEL ( 'unclassified' ) ;
#155 = CARTESIAN_POINT ( 'NONE',  ( 0.0000000000000000000, 0.0000000000000000000, 0.0000000000000000000 ) ) ;
#156 = DIRECTION ( 'NONE',  ( 3.491481338843133355E-15, -1.224646799147353207E-16, 1.000000000000000000 ) ) ;
#157 = CLOSED_SHELL ( 'NONE', ( #297, #147, #247, #311, #33 ) ) ;
#158 = APPROVAL_PERSON_ORGANIZATION ( #181, #193, #334 ) ;
#159 = CC_DESIGN_PERSON_AND_ORGANIZATION_ASSIGNMENT ( #227, #315, ( #271 ) ) ;
#160 = EDGE_LOOP ( 'NONE', ( #319, #209 ) ) ;
#161 = DIRECTION ( 'NONE',  ( 4.275831445896958607E-31, 1.000000000000000000, 1.224646799147353207E-16 ) ) ;
#162 = LOCAL_TIME ( 9, 21, 40.00000000000000000, #231 ) ;
#163 =( NAMED_UNIT ( * ) SI_UNIT ( $, .STERADIAN. ) SOLID_ANGLE_UNIT ( ) );
#164 = CARTESIAN_POINT ( 'NONE',  ( 8.878689293818240556E-17, -0.7249999999999966471, -8.878689293818300953E-17 ) ) ;
#165 = DIRECTION ( 'NONE',  ( 1.903218546456022717E-15, 0.8571673007021097801, 0.5150380749100585964 ) ) ;
#166 = ORIENTED_EDGE ( 'NONE', *, *, #270, .F. ) ;
#167 = CIRCLE ( 'NONE', #29, 0.7249999999999999778 ) ;
#168 = PERSON_AND_ORGANIZATION ( #313, #310 ) ;
#169 = APPROVAL_PERSON_ORGANIZATION ( #168, #84, #267 ) ;
#170 = EDGE_CURVE ( 'NONE', #97, #153, #216, .T. ) ;
#171 = PRODUCT_RELATED_PRODUCT_CATEGORY ( 'detail', '', ( #271 ) ) ;
#172 = FACE_OUTER_BOUND ( 'NONE', #217, .T. ) ;
#173 = CONICAL_SURFACE ( 'NONE', #67, 0.5250000000000000222, 0.7853981633974512766 ) ;
#174 = CARTESIAN_POINT ( 'NONE',  ( 1.520972887970842492E-15, -5.334854745237073247E-17, 0.4356239487949837841 ) ) ;
#175 = APPROVAL_STATUS ( 'not_yet_approved' ) ;
#176 = EDGE_LOOP ( 'NONE', ( #51, #327, #20, #150 ) ) ;
#177 = APPROVAL_DATE_TIME ( #132, #193 ) ;
#178 = LINE ( 'NONE', #180, #251 ) ;
#179 = APPROVAL_STATUS ( 'not_yet_approved' ) ;
#180 = CARTESIAN_POINT ( 'NONE',  ( 3.099977798275280933E-31, 0.7249999999999966471, 8.878689293818270138E-17 ) ) ;
#181 = PERSON_AND_ORGANIZATION ( #313, #310 ) ;
#182 = CC_DESIGN_PERSON_AND_ORGANIZATION_ASSIGNMENT ( #236, #72, ( #235 ) ) ;
#183 = EDGE_CURVE ( 'NONE', #153, #258, #111, .T. ) ;
#184 = ADVANCED_FACE ( 'NONE', ( #190 ), #242, .T. ) ;
#185 = DIRECTION ( 'NONE',  ( 0.0000000000000000000, 1.000000000000000000, 0.0000000000000000000 ) ) ;
#186 = CARTESIAN_POINT ( 'NONE',  ( 0.0000000000000000000, 0.0000000000000000000, 0.0000000000000000000 ) ) ;
#187 = AXIS2_PLACEMENT_3D ( 'NONE', #278, #37, #299 ) ;
#188 = LOCAL_TIME ( 9, 21, 40.00000000000000000, #152 ) ;
#189 = CARTESIAN_POINT ( 'NONE',  ( 1.047444401652940007E-13, -3.673940397442059178E-15, 30.00000000000000000 ) ) ;
#190 = FACE_OUTER_BOUND ( 'NONE', #300, .T. ) ;
#191 = LINE ( 'NONE', #249, #118 ) ;
#192 = ORIENTED_EDGE ( 'NONE', *, *, #283, .F. ) ;
#193 = APPROVAL ( #289, 'UNSPECIFIED' ) ;
#194 = CC_DESIGN_PERSON_AND_ORGANIZATION_ASSIGNMENT ( #285, #78, ( #92 ) ) ;
#195 = ORIENTED_EDGE ( 'NONE', *, *, #316, .T. ) ;
#196 = ORIENTED_EDGE ( 'NONE', *, *, #65, .T. ) ;
#197 = DIRECTION ( 'NONE',  ( -3.491481338843133355E-15, 1.224646799147353207E-16, -1.000000000000000000 ) ) ;
#198 = ORIENTED_EDGE ( 'NONE', *, *, #183, .F. ) ;
#199 = ORIENTED_EDGE ( 'NONE', *, *, #71, .T. ) ;
#200 = CIRCLE ( 'NONE', #151, 0.7249999999999963141 ) ;
#201 = DIRECTION ( 'NONE',  ( 1.000000000000000000, 0.0000000000000000000, 0.0000000000000000000 ) ) ;
#202 = EDGE_CURVE ( 'NONE', #258, #153, #272, .T. ) ;
#203 = PERSON_AND_ORGANIZATION ( #313, #310 ) ;
#204 = DIRECTION ( 'NONE',  ( -3.491481338843133355E-15, 1.224646799147353207E-16, -1.000000000000000000 ) ) ;
#205 = CARTESIAN_POINT ( 'NONE',  ( 2.793185071074506684E-14, -9.797174393178825657E-16, 8.000000000000000000 ) ) ;
#206 = AXIS2_PLACEMENT_3D ( 'NONE', #86, #42, #326 ) ;
#207 = ORIENTED_EDGE ( 'NONE', *, *, #328, .F. ) ;
#208 = ADVANCED_BREP_SHAPE_REPRESENTATION ( '265', ( #286, #280, #233 ), #49 ) ;
#209 = ORIENTED_EDGE ( 'NONE', *, *, #65, .F. ) ;
#210 = CIRCLE ( 'NONE', #63, 0.7249999999999972022 ) ;
#211 = DIRECTION ( 'NONE',  ( -3.491481338843133355E-15, 1.224646799147353207E-16, -1.000000000000000000 ) ) ;
#212 = EDGE_LOOP ( 'NONE', ( #8, #196, #39, #32 ) ) ;
#213 = PLANE ( 'NONE',  #36 ) ;
#214 = APPLICATION_PROTOCOL_DEFINITION ( 'international standard', 'config_control_design', 1994, #241 ) ;
#215 = CARTESIAN_POINT ( 'NONE',  ( 1.040461438975253740E-13, -3.649447461459112464E-15, 29.80000000000000071 ) ) ;
#216 = LINE ( 'NONE', #88, #240 ) ;
#217 = EDGE_LOOP ( 'NONE', ( #219, #14, #259 ) ) ;
#218 = FACE_OUTER_BOUND ( 'NONE', #212, .T. ) ;
#219 = ORIENTED_EDGE ( 'NONE', *, *, #296, .F. ) ;
#220 = EDGE_CURVE ( 'NONE', #329, #314, #178, .T. ) ;
#221 = FACE_OUTER_BOUND ( 'NONE', #176, .T. ) ;
#222 = DIRECTION ( 'NONE',  ( 0.0000000000000000000, 1.000000000000000000, 0.0000000000000000000 ) ) ;
#223 = EDGE_LOOP ( 'NONE', ( #146, #50, #198, #23 ) ) ;
#224 = CIRCLE ( 'NONE', #288, 0.7249999999999999778 ) ;
#225 = FACE_OUTER_BOUND ( 'NONE', #223, .T. ) ;
#226 = DIRECTION ( 'NONE',  ( 0.0000000000000000000, 1.000000000000000000, 0.0000000000000000000 ) ) ;
#227 = PERSON_AND_ORGANIZATION ( #313, #310 ) ;
#228 = EDGE_CURVE ( 'NONE', #282, #258, #312, .T. ) ;
#229 = DIRECTION ( 'NONE',  ( -3.491481338843133355E-15, 1.224646799147353207E-16, -1.000000000000000000 ) ) ;
#230 = CARTESIAN_POINT ( 'NONE',  ( 2.793185071074506684E-14, -9.797174393178825657E-16, 8.000000000000000000 ) ) ;
#231 = COORDINATED_UNIVERSAL_TIME_OFFSET ( 1, 0, .AHEAD. ) ;
#232 = AXIS2_PLACEMENT_3D ( 'NONE', #155, #55, #76 ) ;
#233 = AXIS2_PLACEMENT_3D ( 'NONE', #90, #44, #201 ) ;
#234 = CYLINDRICAL_SURFACE ( 'NONE', #232, 0.7249999999999986455 ) ;
#235 = PRODUCT_DEFINITION ( 'UNKNOWN', '', #92, #56 ) ;
#236 = PERSON_AND_ORGANIZATION ( #313, #310 ) ;
#237 = DIRECTION ( 'NONE',  ( -3.491481338843133355E-15, 1.224646799147353207E-16, -1.000000000000000000 ) ) ;
#238 = UNCERTAINTY_MEASURE_WITH_UNIT (LENGTH_MEASURE( 1.000000000000000082E-05 ), #243, 'distance_accuracy_value', 'NONE');
#239 = MECHANICAL_CONTEXT ( 'NONE', #241, 'mechanical' ) ;
#240 = VECTOR ( 'NONE', #43, 1000.000000000000000 ) ;
#241 = APPLICATION_CONTEXT ( 'configuration controlled 3d designs of mechanical parts and assemblies' ) ;
#242 = CONICAL_SURFACE ( 'NONE', #117, 0.5250000000000000222, 0.7853981633974512766 ) ;
#243 =( LENGTH_UNIT ( ) NAMED_UNIT ( * ) SI_UNIT ( .MILLI., .METRE. ) );
#244 = EDGE_CURVE ( 'NONE', #314, #119, #4, .T. ) ;
#245 = APPROVAL ( #179, 'UNSPECIFIED' ) ;
#246 = CARTESIAN_POINT ( 'NONE',  ( 1.609759780909025317E-15, 0.7249999999999963141, 0.4356239487949838951 ) ) ;
#247 = ADVANCED_FACE ( 'NONE', ( #252 ), #269, .T. ) ;
#248 = EDGE_LOOP ( 'NONE', ( #102, #166 ) ) ;
#249 = CARTESIAN_POINT ( 'NONE',  ( 1.048087341222492423E-13, -0.5250000000000036859, 30.00000000000000000 ) ) ;
#250 = ADVANCED_FACE ( 'NONE', ( #221 ), #41, .T. ) ;
#251 = VECTOR ( 'NONE', #197, 1000.000000000000000 ) ;
#252 = FACE_OUTER_BOUND ( 'NONE', #99, .T. ) ;
#253 = CC_DESIGN_APPROVAL ( #245, ( #235 ) ) ;
#254 = LINE ( 'NONE', #114, #257 ) ;
#255 = CC_DESIGN_DATE_AND_TIME_ASSIGNMENT ( #2, #317, ( #303 ) ) ;
#256 = DIRECTION ( 'NONE',  ( 3.491481338843133355E-15, -1.224646799147353207E-16, 1.000000000000000000 ) ) ;
#257 = VECTOR ( 'NONE', #165, 999.9999999999998863 ) ;
#258 = VERTEX_POINT ( 'NONE', #274 ) ;
#259 = ORIENTED_EDGE ( 'NONE', *, *, #244, .T. ) ;
#260 = DIRECTION ( 'NONE',  ( 0.0000000000000000000, 1.000000000000000000, 0.0000000000000000000 ) ) ;
#261 = CC_DESIGN_DATE_AND_TIME_ASSIGNMENT ( #81, #126, ( #235 ) ) ;
#262 = ADVANCED_FACE ( 'NONE', ( #96 ), #173, .T. ) ;
#263 = DIRECTION ( 'NONE',  ( 0.0000000000000000000, 1.000000000000000000, 0.0000000000000000000 ) ) ;
#264 = CALENDAR_DATE ( 2021, 3, 9 ) ;
#265 = ORIENTED_EDGE ( 'NONE', *, *, #220, .F. ) ;
#266 = LINE ( 'NONE', #131, #91 ) ;
#267 = APPROVAL_ROLE ( '' ) ;
#268 = DIRECTION ( 'NONE',  ( 0.0000000000000000000, 1.000000000000000000, 0.0000000000000000000 ) ) ;
#269 = CONICAL_SURFACE ( 'NONE', #318, 0.7249999999999963141, 1.029744258676649649 ) ;
#270 = EDGE_CURVE ( 'NONE', #144, #95, #293, .T. ) ;
#271 = PRODUCT ( '265', '265', '', ( #239 ) ) ;
#272 = CIRCLE ( 'NONE', #124, 0.7249999999999972022 ) ;
#273 = LINE ( 'NONE', #295, #279 ) ;
#274 = CARTESIAN_POINT ( 'NONE',  ( 6.607778419707337247E-14, -0.7249999999999982014, 8.000000000000000000 ) ) ;
#275 = AXIS2_PLACEMENT_3D ( 'NONE', #107, #156, #110 ) ;
#276 = CC_DESIGN_APPROVAL ( #84, ( #303 ) ) ;
#277 = ORIENTED_EDGE ( 'NONE', *, *, #328, .T. ) ;
#278 = CARTESIAN_POINT ( 'NONE',  ( 1.520972887970842492E-15, -5.334854745237073247E-17, 0.4356239487949837841 ) ) ;
#279 = VECTOR ( 'NONE', #40, 1000.000000000000000 ) ;
#280 = MANIFOLD_SOLID_BREP ( 'Corps-Déplacer/Copier1[2]', #157 ) ;
#281 = COORDINATED_UNIVERSAL_TIME_OFFSET ( 1, 0, .AHEAD. ) ;
#282 = VERTEX_POINT ( 'NONE', #11 ) ;
#283 = EDGE_CURVE ( 'NONE', #121, #314, #254, .T. ) ;
#284 = ADVANCED_FACE ( 'NONE', ( #306 ), #213, .F. ) ;
#285 = PERSON_AND_ORGANIZATION ( #313, #310 ) ;
#286 = MANIFOLD_SOLID_BREP ( 'Corps-Déplacer/Copier1[1]', #48 ) ;
#287 = DATE_AND_TIME ( #52, #162 ) ;
#288 = AXIS2_PLACEMENT_3D ( 'NONE', #133, #237, #3 ) ;
#289 = APPROVAL_STATUS ( 'not_yet_approved' ) ;
#290 = DIRECTION ( 'NONE',  ( -2.468850131082257455E-15, 0.7071067811865497932, -0.7071067811865453523 ) ) ;
#291 = APPLICATION_CONTEXT ( 'configuration controlled 3d designs of mechanical parts and assemblies' ) ;
#292 = ORIENTED_EDGE ( 'NONE', *, *, #105, .F. ) ;
#293 = CIRCLE ( 'NONE', #206, 0.5250000000000000222 ) ;
#294 = AXIS2_PLACEMENT_3D ( 'NONE', #68, #115, #87 ) ;
#295 = CARTESIAN_POINT ( 'NONE',  ( 1.520972887970842098E-15, -0.7249999999999963141, 0.4356239487949836731 ) ) ;
#296 = EDGE_CURVE ( 'NONE', #121, #119, #273, .T. ) ;
#297 = ADVANCED_FACE ( 'NONE', ( #120 ), #143, .T. ) ;
#298 = DIRECTION ( 'NONE',  ( -3.491481338843133355E-15, 1.224646799147353207E-16, -1.000000000000000000 ) ) ;
#299 = DIRECTION ( 'NONE',  ( 5.312910191413091844E-31, 1.000000000000000000, 1.495451272393806938E-16 ) ) ;
#300 = EDGE_LOOP ( 'NONE', ( #199, #277, #142, #112 ) ) ;
#301 = DIRECTION ( 'NONE',  ( 4.275831445896958607E-31, 1.000000000000000000, 1.224646799147353207E-16 ) ) ;
#302 = VECTOR ( 'NONE', #229, 1000.000000000000000 ) ;
#303 = SECURITY_CLASSIFICATION ( '', '', #154 ) ;
#304 = DIRECTION ( 'NONE',  ( -3.491481338843133355E-15, 1.224646799147353207E-16, -1.000000000000000000 ) ) ;
#305 = ORIENTED_EDGE ( 'NONE', *, *, #98, .T. ) ;
#306 = FACE_OUTER_BOUND ( 'NONE', #248, .T. ) ;
#307 = CARTESIAN_POINT ( 'NONE',  ( 1.047444401652940007E-13, -3.673940397442059178E-15, 30.00000000000000000 ) ) ;
#308 = PERSON_AND_ORGANIZATION ( #313, #310 ) ;
#309 = CONICAL_SURFACE ( 'NONE', #7, 0.7249999999999963141, 1.029744258676649649 ) ;
#310 = ORGANIZATION ( 'UNSPECIFIED', 'UNSPECIFIED', '' ) ;
#311 = ADVANCED_FACE ( 'NONE', ( #218 ), #325, .T. ) ;
#312 = LINE ( 'NONE', #59, #302 ) ;
#313 = PERSON ( 'UNSPECIFIED', 'UNSPECIFIED', 'UNSPECIFIED', ('UNSPECIFIED'), ('UNSPECIFIED'), ('UNSPECIFIED') ) ;
#314 = VERTEX_POINT ( 'NONE', #246 ) ;
#315 = PERSON_AND_ORGANIZATION_ROLE ( 'design_owner' ) ;
#316 = EDGE_CURVE ( 'NONE', #69, #119, #139, .T. ) ;
#317 = DATE_TIME_ROLE ( 'classification_date' ) ;
#318 = AXIS2_PLACEMENT_3D ( 'NONE', #174, #25, #331 ) ;
#319 = ORIENTED_EDGE ( 'NONE', *, *, #80, .F. ) ;
#320 = AXIS2_PLACEMENT_3D ( 'NONE', #230, #330, #260 ) ;
#321 = ORIENTED_EDGE ( 'NONE', *, *, #296, .T. ) ;
#322 = DIRECTION ( 'NONE',  ( -3.491481338843133355E-15, 1.224646799147353207E-16, -1.000000000000000000 ) ) ;
#323 = CARTESIAN_POINT ( 'NONE',  ( 2.793185071074506684E-14, 0.7249999999999963141, 8.000000000000000000 ) ) ;
#324 = AXIS2_PLACEMENT_3D ( 'NONE', #15, #47, #145 ) ;
#325 = CYLINDRICAL_SURFACE ( 'NONE', #113, 0.7249999999999966471 ) ;
#326 = DIRECTION ( 'NONE',  ( 0.0000000000000000000, 1.000000000000000000, 0.0000000000000000000 ) ) ;
#327 = ORIENTED_EDGE ( 'NONE', *, *, #105, .T. ) ;
#328 = EDGE_CURVE ( 'NONE', #144, #282, #191, .T. ) ;
#329 = VERTEX_POINT ( 'NONE', #66 ) ;
#330 = DIRECTION ( 'NONE',  ( -3.491481338843133355E-15, 1.224646799147353207E-16, -1.000000000000000000 ) ) ;
#331 = DIRECTION ( 'NONE',  ( -5.312910191413091844E-31, -1.000000000000000000, -1.495451272393806938E-16 ) ) ;
#332 = PERSON_AND_ORGANIZATION_ROLE ( 'classification_officer' ) ;
#333 = AXIS2_PLACEMENT_3D ( 'NONE', #45, #16, #123 ) ;
#334 = APPROVAL_ROLE ( '' ) ;
#335 = CARTESIAN_POINT ( 'NONE',  ( 1.481519869229611383E-14, -0.7249999999999982014, 8.000000000000000000 ) ) ;
#336 = PERSON_AND_ORGANIZATION ( #313, #310 ) ;
#337 = PLANE ( 'NONE',  #333 ) ;
ENDSEC;
END-ISO-10303-21;
