ISO-10303-21;
HEADER;
FILE_DESCRIPTION (( 'STEP AP203' ),
    '1' );
FILE_NAME ('36459.step',
    '2021-10-07T13:46:36',
    ( '' ),
    ( '' ),
    'SwSTEP 2.0',
    'SolidWorks 2019',
    '' );
FILE_SCHEMA (( 'CONFIG_CONTROL_DESIGN' ));
ENDSEC;

DATA;
#1 = CC_DESIGN_PERSON_AND_ORGANIZATION_ASSIGNMENT ( #38, #78, ( #103 ) ) ;
#2 = COORDINATED_UNIVERSAL_TIME_OFFSET ( 1, 0, .AHEAD. ) ;
#3 = AXIS2_PLACEMENT_3D ( 'NONE', #183, #98, #148 ) ;
#4 = DIRECTION ( 'NONE',  ( 1.000000000000000000, 0.0000000000000000000, 0.0000000000000000000 ) ) ;
#5 =( NAMED_UNIT ( * ) PLANE_ANGLE_UNIT ( ) SI_UNIT ( $, .RADIAN. ) );
#6 = DESIGN_CONTEXT ( 'detailed design', #131, 'design' ) ;
#7 = CARTESIAN_POINT ( 'NONE',  ( 3.910459099504309358E-14, 5.436629212149171564E-33, 11.19999999999999929 ) ) ;
#8 = DATE_AND_TIME ( #174, #9 ) ;
#9 = LOCAL_TIME ( 15, 46, 36.00000000000000000, #2 ) ;
#10 = VERTEX_POINT ( 'NONE', #64 ) ;
#11 = ORIENTED_EDGE ( 'NONE', *, *, #135, .T. ) ;
#12 = ADVANCED_FACE ( 'NONE', ( #42 ), #204, .F. ) ;
#13 = DIRECTION ( 'NONE',  ( -3.491481338843133355E-15, 1.224646799147353207E-16, -1.000000000000000000 ) ) ;
#14 = LOCAL_TIME ( 15, 46, 36.00000000000000000, #190 ) ;
#15 = EDGE_LOOP ( 'NONE', ( #99 ) ) ;
#16 = DIRECTION ( 'NONE',  ( -3.491481338843133355E-15, 1.224646799147353207E-16, -1.000000000000000000 ) ) ;
#17 = APPROVAL ( #121, 'UNSPECIFIED' ) ;
#18 = LOCAL_TIME ( 15, 46, 36.00000000000000000, #210 ) ;
#19 = MANIFOLD_SOLID_BREP ( 'Corps-Déplacer/Copier1[1]', #50 ) ;
#20 = VERTEX_POINT ( 'NONE', #189 ) ;
#21 = APPROVAL_ROLE ( '' ) ;
#22 = APPROVAL_ROLE ( '' ) ;
#23 = CIRCLE ( 'NONE', #106, 0.5500000000000000444 ) ;
#24 = APPROVAL_ROLE ( '' ) ;
#25 = APPROVAL ( #104, 'UNSPECIFIED' ) ;
#26 = DATE_TIME_ROLE ( 'creation_date' ) ;
#27 = PRODUCT ( '36459', '36459', '', ( #140 ) ) ;
#28 = FACE_OUTER_BOUND ( 'NONE', #178, .T. ) ;
#29 = ORIENTED_EDGE ( 'NONE', *, *, #192, .F. ) ;
#30 = DIRECTION ( 'NONE',  ( 0.0000000000000000000, 1.000000000000000000, 0.0000000000000000000 ) ) ;
#31 = CARTESIAN_POINT ( 'NONE',  ( 3.910459099504309358E-14, 5.436629212149171564E-33, 11.19999999999999929 ) ) ;
#32 = AXIS2_PLACEMENT_3D ( 'NONE', #160, #109, #179 ) ;
#33 = APPROVAL_PERSON_ORGANIZATION ( #175, #17, #22 ) ;
#34 = EDGE_CURVE ( 'NONE', #20, #20, #58, .T. ) ;
#35 = ADVANCED_BREP_SHAPE_REPRESENTATION ( '36459', ( #19, #168, #164 ), #75 ) ;
#36 = CC_DESIGN_SECURITY_CLASSIFICATION ( #151, ( #103 ) ) ;
#37 = CALENDAR_DATE ( 2021, 7, 10 ) ;
#38 = PERSON_AND_ORGANIZATION ( #152, #65 ) ;
#39 = DATE_AND_TIME ( #208, #53 ) ;
#40 = DIRECTION ( 'NONE',  ( -3.491481338843133355E-15, 1.224646799147353207E-16, -1.000000000000000000 ) ) ;
#41 = CARTESIAN_POINT ( 'NONE',  ( 3.925577657185698142E-14, -1.376907291238660537E-15, 11.24330127018922632 ) ) ;
#42 = FACE_OUTER_BOUND ( 'NONE', #161, .T. ) ;
#43 = FACE_OUTER_BOUND ( 'NONE', #15, .T. ) ;
#44 = ADVANCED_FACE ( 'NONE', ( #212, #216 ), #79, .T. ) ;
#45 = FACE_BOUND ( 'NONE', #197, .T. ) ;
#46 =( NAMED_UNIT ( * ) SI_UNIT ( $, .STERADIAN. ) SOLID_ANGLE_UNIT ( ) );
#47 = EDGE_LOOP ( 'NONE', ( #182 ) ) ;
#48 = FACE_OUTER_BOUND ( 'NONE', #47, .T. ) ;
#49 = CONICAL_SURFACE ( 'NONE', #171, 0.7249999999999940936, 1.029744258676649871 ) ;
#50 = CLOSED_SHELL ( 'NONE', ( #222, #119, #86, #172, #12 ) ) ;
#51 = CC_DESIGN_PERSON_AND_ORGANIZATION_ASSIGNMENT ( #52, #209, ( #151 ) ) ;
#52 = PERSON_AND_ORGANIZATION ( #152, #65 ) ;
#53 = LOCAL_TIME ( 15, 46, 36.00000000000000000, #177 ) ;
#54 = DATE_AND_TIME ( #138, #130 ) ;
#55 = APPLICATION_PROTOCOL_DEFINITION ( 'international standard', 'config_control_design', 1994, #180 ) ;
#56 = DIRECTION ( 'NONE',  ( -3.491481338843133355E-15, 1.224646799147353207E-16, -1.000000000000000000 ) ) ;
#57 = SHAPE_DEFINITION_REPRESENTATION ( #127, #35 ) ;
#58 = CIRCLE ( 'NONE', #217, 0.7249999999999944267 ) ;
#59 = PERSON_AND_ORGANIZATION_ROLE ( 'creator' ) ;
#60 = UNCERTAINTY_MEASURE_WITH_UNIT (LENGTH_MEASURE( 1.000000000000000082E-05 ), #136, 'distance_accuracy_value', 'NONE');
#61 = DIRECTION ( 'NONE',  ( -3.491481338843133355E-15, 1.224646799147353207E-16, -1.000000000000000000 ) ) ;
#62 = EDGE_LOOP ( 'NONE', ( #215 ) ) ;
#63 = ADVANCED_FACE ( 'NONE', ( #48 ), #49, .T. ) ;
#64 = CARTESIAN_POINT ( 'NONE',  ( 1.040461438975253740E-13, 0.7499999999999962252, 29.80000000000000071 ) ) ;
#65 = ORGANIZATION ( 'UNSPECIFIED', 'UNSPECIFIED', '' ) ;
#66 = DIRECTION ( 'NONE',  ( 4.275831445896959482E-31, 1.000000000000000000, 1.224646799147353207E-16 ) ) ;
#67 = ORIENTED_EDGE ( 'NONE', *, *, #34, .F. ) ;
#68 = DIRECTION ( 'NONE',  ( 5.312910191413107609E-31, 1.000000000000000000, 1.495451272393811375E-16 ) ) ;
#69 = ORIENTED_EDGE ( 'NONE', *, *, #135, .F. ) ;
#70 = DIRECTION ( 'NONE',  ( 4.275831445896958607E-31, 1.000000000000000000, 1.224646799147353207E-16 ) ) ;
#71 = PRODUCT_DEFINITION ( 'UNKNOWN', '', #103, #6 ) ;
#72 = CARTESIAN_POINT ( 'NONE',  ( 3.925577657185698142E-14, 0.7499999999999963363, 11.24330127018922632 ) ) ;
#73 = DIRECTION ( 'NONE',  ( -4.275831445896958607E-31, -1.000000000000000000, -1.224646799147353207E-16 ) ) ;
#74 = DATE_TIME_ROLE ( 'classification_date' ) ;
#75 =( GEOMETRIC_REPRESENTATION_CONTEXT ( 3 ) GLOBAL_UNCERTAINTY_ASSIGNED_CONTEXT ( ( #60 ) ) GLOBAL_UNIT_ASSIGNED_CONTEXT ( ( #136, #5, #46 ) ) REPRESENTATION_CONTEXT ( 'NONE', 'WORKASPACE' ) );
#76 = PERSON_AND_ORGANIZATION ( #152, #65 ) ;
#77 = DIRECTION ( 'NONE',  ( 3.491481338843133355E-15, -1.224646799147353207E-16, 1.000000000000000000 ) ) ;
#78 = PERSON_AND_ORGANIZATION_ROLE ( 'design_supplier' ) ;
#79 = CYLINDRICAL_SURFACE ( 'NONE', #100, 0.7249999999999943157 ) ;
#80 = CC_DESIGN_DATE_AND_TIME_ASSIGNMENT ( #91, #26, ( #71 ) ) ;
#81 = AXIS2_PLACEMENT_3D ( 'NONE', #196, #40, #108 ) ;
#82 = DIRECTION ( 'NONE',  ( 0.0000000000000000000, 1.000000000000000000, 0.0000000000000000000 ) ) ;
#83 = ORIENTED_EDGE ( 'NONE', *, *, #34, .T. ) ;
#84 = FACE_OUTER_BOUND ( 'NONE', #85, .T. ) ;
#85 = EDGE_LOOP ( 'NONE', ( #83 ) ) ;
#86 = ADVANCED_FACE ( 'NONE', ( #43, #112 ), #97, .T. ) ;
#87 = VERTEX_POINT ( 'NONE', #107 ) ;
#88 = DATE_AND_TIME ( #37, #14 ) ;
#89 = APPLICATION_PROTOCOL_DEFINITION ( 'international standard', 'config_control_design', 1994, #131 ) ;
#90 = CC_DESIGN_APPROVAL ( #165, ( #103 ) ) ;
#91 = DATE_AND_TIME ( #195, #18 ) ;
#92 = PLANE ( 'NONE',  #111 ) ;
#93 = APPROVAL_STATUS ( 'not_yet_approved' ) ;
#94 = FACE_BOUND ( 'NONE', #167, .T. ) ;
#95 = EDGE_LOOP ( 'NONE', ( #11 ) ) ;
#96 = APPROVAL_PERSON_ORGANIZATION ( #76, #25, #24 ) ;
#97 = CYLINDRICAL_SURFACE ( 'NONE', #205, 0.7499999999999987788 ) ;
#98 = DIRECTION ( 'NONE',  ( 3.491481338843133355E-15, -1.224646799147353207E-16, 1.000000000000000000 ) ) ;
#99 = ORIENTED_EDGE ( 'NONE', *, *, #102, .F. ) ;
#100 = AXIS2_PLACEMENT_3D ( 'NONE', #129, #13, #158 ) ;
#101 = CARTESIAN_POINT ( 'NONE',  ( 1.047444401652940007E-13, -3.673940397442059178E-15, 30.00000000000000000 ) ) ;
#102 = EDGE_CURVE ( 'NONE', #170, #170, #185, .T. ) ;
#103 = PRODUCT_DEFINITION_FORMATION_WITH_SPECIFIED_SOURCE ( 'ANY', '', #27, .NOT_KNOWN. ) ;
#104 = APPROVAL_STATUS ( 'not_yet_approved' ) ;
#105 = COORDINATED_UNIVERSAL_TIME_OFFSET ( 1, 0, .AHEAD. ) ;
#106 = AXIS2_PLACEMENT_3D ( 'NONE', #101, #16, #166 ) ;
#107 = CARTESIAN_POINT ( 'NONE',  ( 3.910459099504309358E-14, 0.7249999999999929834, 11.19999999999999929 ) ) ;
#108 = DIRECTION ( 'NONE',  ( 0.0000000000000000000, 1.000000000000000000, 0.0000000000000000000 ) ) ;
#109 = DIRECTION ( 'NONE',  ( -3.491481338843133355E-15, 1.224646799147353207E-16, -1.000000000000000000 ) ) ;
#110 = CARTESIAN_POINT ( 'NONE',  ( 1.047444401652940007E-13, 4.124339402320052999E-33, 30.00000000000000000 ) ) ;
#111 = AXIS2_PLACEMENT_3D ( 'NONE', #7, #77, #124 ) ;
#112 = FACE_OUTER_BOUND ( 'NONE', #218, .T. ) ;
#113 = FACE_OUTER_BOUND ( 'NONE', #133, .T. ) ;
#114 = ORIENTED_EDGE ( 'NONE', *, *, #157, .T. ) ;
#115 = AXIS2_PLACEMENT_3D ( 'NONE', #41, #201, #82 ) ;
#116 = DIRECTION ( 'NONE',  ( 3.491481338843133355E-15, -1.224646799147353207E-16, 1.000000000000000000 ) ) ;
#117 = PERSON_AND_ORGANIZATION ( #152, #65 ) ;
#118 = PERSON_AND_ORGANIZATION_ROLE ( 'creator' ) ;
#119 = ADVANCED_FACE ( 'NONE', ( #45, #113 ), #206, .T. ) ;
#120 = APPROVAL_DATE_TIME ( #54, #25 ) ;
#121 = APPROVAL_STATUS ( 'not_yet_approved' ) ;
#122 = CONICAL_SURFACE ( 'NONE', #32, 0.5500000000000000444, 0.7853981633974510546 ) ;
#123 = CC_DESIGN_PERSON_AND_ORGANIZATION_ASSIGNMENT ( #141, #118, ( #103 ) ) ;
#124 = DIRECTION ( 'NONE',  ( -4.275831445896958607E-31, -1.000000000000000000, -1.224646799147353207E-16 ) ) ;
#125 = VERTEX_POINT ( 'NONE', #214 ) ;
#126 = CARTESIAN_POINT ( 'NONE',  ( 3.910459099504309358E-14, -1.371604415045035513E-15, 11.19999999999999929 ) ) ;
#127 = PRODUCT_DEFINITION_SHAPE ( 'NONE', 'NONE',  #71 ) ;
#128 = ORIENTED_EDGE ( 'NONE', *, *, #102, .T. ) ;
#129 = CARTESIAN_POINT ( 'NONE',  ( 0.0000000000000000000, 0.0000000000000000000, 0.0000000000000000000 ) ) ;
#130 = LOCAL_TIME ( 15, 46, 36.00000000000000000, #105 ) ;
#131 = APPLICATION_CONTEXT ( 'configuration controlled 3d designs of mechanical parts and assemblies' ) ;
#132 = DIRECTION ( 'NONE',  ( -3.491481338843133355E-15, 1.224646799147353207E-16, -1.000000000000000000 ) ) ;
#133 = EDGE_LOOP ( 'NONE', ( #128 ) ) ;
#134 = VERTEX_POINT ( 'NONE', #221 ) ;
#135 = EDGE_CURVE ( 'NONE', #87, #87, #194, .T. ) ;
#136 =( LENGTH_UNIT ( ) NAMED_UNIT ( * ) SI_UNIT ( .MILLI., .METRE. ) );
#137 = EDGE_CURVE ( 'NONE', #125, #125, #188, .T. ) ;
#138 = CALENDAR_DATE ( 2021, 7, 10 ) ;
#139 = CIRCLE ( 'NONE', #81, 0.7499999999999998890 ) ;
#140 = MECHANICAL_CONTEXT ( 'NONE', #180, 'mechanical' ) ;
#141 = PERSON_AND_ORGANIZATION ( #152, #65 ) ;
#142 = APPROVAL_DATE_TIME ( #39, #17 ) ;
#143 = DIRECTION ( 'NONE',  ( -5.312910191413107609E-31, -1.000000000000000000, -1.495451272393811375E-16 ) ) ;
#144 = APPROVAL_PERSON_ORGANIZATION ( #159, #165, #21 ) ;
#145 = CARTESIAN_POINT ( 'NONE',  ( 3.910459099504309358E-14, -1.371604415045035513E-15, 11.19999999999999929 ) ) ;
#146 = DIRECTION ( 'NONE',  ( -3.491481338843133355E-15, 1.224646799147353207E-16, -1.000000000000000000 ) ) ;
#147 = ORIENTED_EDGE ( 'NONE', *, *, #192, .T. ) ;
#148 = DIRECTION ( 'NONE',  ( 0.0000000000000000000, -1.000000000000000000, 0.0000000000000000000 ) ) ;
#149 = EDGE_LOOP ( 'NONE', ( #69 ) ) ;
#150 = ADVANCED_FACE ( 'NONE', ( #202 ), #92, .T. ) ;
#151 = SECURITY_CLASSIFICATION ( '', '', #223 ) ;
#152 = PERSON ( 'UNSPECIFIED', 'UNSPECIFIED', 'UNSPECIFIED', ('UNSPECIFIED'), ('UNSPECIFIED'), ('UNSPECIFIED') ) ;
#153 = CC_DESIGN_PERSON_AND_ORGANIZATION_ASSIGNMENT ( #156, #207, ( #27 ) ) ;
#154 = APPROVAL_DATE_TIME ( #8, #165 ) ;
#155 = CC_DESIGN_APPROVAL ( #25, ( #151 ) ) ;
#156 = PERSON_AND_ORGANIZATION ( #152, #65 ) ;
#157 = EDGE_CURVE ( 'NONE', #10, #10, #139, .T. ) ;
#158 = DIRECTION ( 'NONE',  ( 4.275831445896958607E-31, 1.000000000000000000, 1.224646799147353207E-16 ) ) ;
#159 = PERSON_AND_ORGANIZATION ( #152, #65 ) ;
#160 = CARTESIAN_POINT ( 'NONE',  ( 1.047444401652940007E-13, -3.673940397442059178E-15, 30.00000000000000000 ) ) ;
#161 = EDGE_LOOP ( 'NONE', ( #29 ) ) ;
#162 = CARTESIAN_POINT ( 'NONE',  ( 0.0000000000000000000, 0.0000000000000000000, 0.0000000000000000000 ) ) ;
#163 = DIRECTION ( 'NONE',  ( -3.491481338843133355E-15, 1.224646799147353207E-16, -1.000000000000000000 ) ) ;
#164 = AXIS2_PLACEMENT_3D ( 'NONE', #211, #173, #4 ) ;
#165 = APPROVAL ( #93, 'UNSPECIFIED' ) ;
#166 = DIRECTION ( 'NONE',  ( 0.0000000000000000000, 1.000000000000000000, 0.0000000000000000000 ) ) ;
#167 = EDGE_LOOP ( 'NONE', ( #147 ) ) ;
#168 = MANIFOLD_SOLID_BREP ( 'Corps-Déplacer/Copier1[2]', #193 ) ;
#169 = CC_DESIGN_APPROVAL ( #17, ( #71 ) ) ;
#170 = VERTEX_POINT ( 'NONE', #72 ) ;
#171 = AXIS2_PLACEMENT_3D ( 'NONE', #198, #181, #143 ) ;
#172 = ADVANCED_FACE ( 'NONE', ( #28, #94 ), #122, .T. ) ;
#173 = DIRECTION ( 'NONE',  ( 0.0000000000000000000, 0.0000000000000000000, 1.000000000000000000 ) ) ;
#174 = CALENDAR_DATE ( 2021, 7, 10 ) ;
#175 = PERSON_AND_ORGANIZATION ( #152, #65 ) ;
#176 = AXIS2_PLACEMENT_3D ( 'NONE', #31, #116, #73 ) ;
#177 = COORDINATED_UNIVERSAL_TIME_OFFSET ( 1, 0, .AHEAD. ) ;
#178 = EDGE_LOOP ( 'NONE', ( #200 ) ) ;
#179 = DIRECTION ( 'NONE',  ( 0.0000000000000000000, 1.000000000000000000, 0.0000000000000000000 ) ) ;
#180 = APPLICATION_CONTEXT ( 'configuration controlled 3d designs of mechanical parts and assemblies' ) ;
#181 = DIRECTION ( 'NONE',  ( 3.491481338843133355E-15, -1.224646799147353207E-16, 1.000000000000000000 ) ) ;
#182 = ORIENTED_EDGE ( 'NONE', *, *, #137, .T. ) ;
#183 = CARTESIAN_POINT ( 'NONE',  ( 3.925577657185698142E-14, -1.376907291238660537E-15, 11.24330127018922632 ) ) ;
#184 = PLANE ( 'NONE',  #176 ) ;
#185 = CIRCLE ( 'NONE', #115, 0.7499999999999977796 ) ;
#186 = CC_DESIGN_DATE_AND_TIME_ASSIGNMENT ( #88, #74, ( #151 ) ) ;
#187 = AXIS2_PLACEMENT_3D ( 'NONE', #110, #56, #70 ) ;
#188 = CIRCLE ( 'NONE', #199, 0.7249999999999940936 ) ;
#189 = CARTESIAN_POINT ( 'NONE',  ( 3.910459099504309358E-14, 0.7249999999999929834, 11.19999999999999929 ) ) ;
#190 = COORDINATED_UNIVERSAL_TIME_OFFSET ( 1, 0, .AHEAD. ) ;
#191 = AXIS2_PLACEMENT_3D ( 'NONE', #126, #163, #219 ) ;
#192 = EDGE_CURVE ( 'NONE', #134, #134, #23, .T. ) ;
#193 = CLOSED_SHELL ( 'NONE', ( #63, #44, #150 ) ) ;
#194 = CIRCLE ( 'NONE', #191, 0.7249999999999944267 ) ;
#195 = CALENDAR_DATE ( 2021, 7, 10 ) ;
#196 = CARTESIAN_POINT ( 'NONE',  ( 1.040461438975253740E-13, -3.649447461459112464E-15, 29.80000000000000071 ) ) ;
#197 = EDGE_LOOP ( 'NONE', ( #67 ) ) ;
#198 = CARTESIAN_POINT ( 'NONE',  ( 1.520972887970837562E-15, -5.334854745237056607E-17, 0.4356239487949823408 ) ) ;
#199 = AXIS2_PLACEMENT_3D ( 'NONE', #213, #61, #68 ) ;
#200 = ORIENTED_EDGE ( 'NONE', *, *, #157, .F. ) ;
#201 = DIRECTION ( 'NONE',  ( -3.491481338843133355E-15, 1.224646799147353207E-16, -1.000000000000000000 ) ) ;
#202 = FACE_OUTER_BOUND ( 'NONE', #149, .T. ) ;
#203 = CC_DESIGN_PERSON_AND_ORGANIZATION_ASSIGNMENT ( #117, #59, ( #71 ) ) ;
#204 = PLANE ( 'NONE',  #187 ) ;
#205 = AXIS2_PLACEMENT_3D ( 'NONE', #162, #146, #66 ) ;
#206 = CONICAL_SURFACE ( 'NONE', #3, 0.7499999999999977796, 0.5235987755983161351 ) ;
#207 = PERSON_AND_ORGANIZATION_ROLE ( 'design_owner' ) ;
#208 = CALENDAR_DATE ( 2021, 7, 10 ) ;
#209 = PERSON_AND_ORGANIZATION_ROLE ( 'classification_officer' ) ;
#210 = COORDINATED_UNIVERSAL_TIME_OFFSET ( 1, 0, .AHEAD. ) ;
#211 = CARTESIAN_POINT ( 'NONE',  ( 0.0000000000000000000, 0.0000000000000000000, 0.0000000000000000000 ) ) ;
#212 = FACE_OUTER_BOUND ( 'NONE', #62, .T. ) ;
#213 = CARTESIAN_POINT ( 'NONE',  ( 1.520972887970837562E-15, -5.334854745237056607E-17, 0.4356239487949823408 ) ) ;
#214 = CARTESIAN_POINT ( 'NONE',  ( 1.520972887970837957E-15, 0.7249999999999940936, 0.4356239487949824518 ) ) ;
#215 = ORIENTED_EDGE ( 'NONE', *, *, #137, .F. ) ;
#216 = FACE_OUTER_BOUND ( 'NONE', #95, .T. ) ;
#217 = AXIS2_PLACEMENT_3D ( 'NONE', #145, #132, #30 ) ;
#218 = EDGE_LOOP ( 'NONE', ( #114 ) ) ;
#219 = DIRECTION ( 'NONE',  ( 0.0000000000000000000, 1.000000000000000000, 0.0000000000000000000 ) ) ;
#220 = PRODUCT_RELATED_PRODUCT_CATEGORY ( 'detail', '', ( #27 ) ) ;
#221 = CARTESIAN_POINT ( 'NONE',  ( 1.047444401652940007E-13, 0.5499999999999963807, 30.00000000000000000 ) ) ;
#222 = ADVANCED_FACE ( 'NONE', ( #84 ), #184, .F. ) ;
#223 = SECURITY_CLASSIFICATION_LEVEL ( 'unclassified' ) ;
ENDSEC;
END-ISO-10303-21;
