ISO-10303-21;
HEADER;
FILE_DESCRIPTION (( 'STEP AP203' ),
    '1' );
FILE_NAME ('264.step',
    '2021-09-03T07:21:39',
    ( '' ),
    ( '' ),
    'SwSTEP 2.0',
    'SolidWorks 2019',
    '' );
FILE_SCHEMA (( 'CONFIG_CONTROL_DESIGN' ));
ENDSEC;

DATA;
#1 = EDGE_CURVE ( 'NONE', #150, #244, #97, .T. ) ;
#2 = AXIS2_PLACEMENT_3D ( 'NONE', #153, #20, #123 ) ;
#3 = PRODUCT_DEFINITION_SHAPE ( 'NONE', 'NONE',  #167 ) ;
#4 = ORIENTED_EDGE ( 'NONE', *, *, #208, .T. ) ;
#5 = PERSON_AND_ORGANIZATION_ROLE ( 'design_supplier' ) ;
#6 = CC_DESIGN_PERSON_AND_ORGANIZATION_ASSIGNMENT ( #37, #143, ( #71 ) ) ;
#7 = ORIENTED_EDGE ( 'NONE', *, *, #291, .T. ) ;
#8 = DIRECTION ( 'NONE',  ( 0.0000000000000000000, 1.000000000000000000, 0.0000000000000000000 ) ) ;
#9 = LOCAL_TIME ( 9, 21, 39.00000000000000000, #10 ) ;
#10 = COORDINATED_UNIVERSAL_TIME_OFFSET ( 1, 0, .AHEAD. ) ;
#11 = FACE_OUTER_BOUND ( 'NONE', #141, .T. ) ;
#12 = AXIS2_PLACEMENT_3D ( 'NONE', #32, #137, #80 ) ;
#13 = DIRECTION ( 'NONE',  ( 1.000000000000000000, 0.0000000000000000000, 0.0000000000000000000 ) ) ;
#14 = CARTESIAN_POINT ( 'NONE',  ( 2.993082012127864806E-31, 0.6999999999999986233, 8.572527594031455933E-17 ) ) ;
#15 = DIRECTION ( 'NONE',  ( -3.491481338843133355E-15, 1.224646799147353207E-16, -1.000000000000000000 ) ) ;
#16 = DIRECTION ( 'NONE',  ( 0.0000000000000000000, 1.000000000000000000, 0.0000000000000000000 ) ) ;
#17 = PLANE ( 'NONE',  #36 ) ;
#18 = APPROVAL_STATUS ( 'not_yet_approved' ) ;
#19 = DIRECTION ( 'NONE',  ( -3.491481338843133355E-15, 1.224646799147353207E-16, -1.000000000000000000 ) ) ;
#20 = DIRECTION ( 'NONE',  ( -3.491481338843133355E-15, 1.224646799147353207E-16, -1.000000000000000000 ) ) ;
#21 = CIRCLE ( 'NONE', #259, 0.5000000000000000000 ) ;
#22 = DIRECTION ( 'NONE',  ( -3.491481338843133355E-15, 1.224646799147353207E-16, -1.000000000000000000 ) ) ;
#23 = CARTESIAN_POINT ( 'NONE',  ( 2.793185071074506684E-14, 5.249159239316466732E-33, 8.000000000000000000 ) ) ;
#24 = DATE_AND_TIME ( #135, #70 ) ;
#25 = APPLICATION_CONTEXT ( 'configuration controlled 3d designs of mechanical parts and assemblies' ) ;
#26 =( LENGTH_UNIT ( ) NAMED_UNIT ( * ) SI_UNIT ( .MILLI., .METRE. ) );
#27 = FACE_OUTER_BOUND ( 'NONE', #317, .T. ) ;
#28 = VERTEX_POINT ( 'NONE', #283 ) ;
#29 = AXIS2_PLACEMENT_3D ( 'NONE', #236, #332, #164 ) ;
#30 = APPROVAL_PERSON_ORGANIZATION ( #60, #253, #318 ) ;
#31 = DIRECTION ( 'NONE',  ( 3.491481338843133355E-15, -1.224646799147353207E-16, 1.000000000000000000 ) ) ;
#32 = CARTESIAN_POINT ( 'NONE',  ( 0.0000000000000000000, 0.0000000000000000000, 0.0000000000000000000 ) ) ;
#33 = LINE ( 'NONE', #302, #251 ) ;
#34 = ORIENTED_EDGE ( 'NONE', *, *, #188, .T. ) ;
#35 = ADVANCED_BREP_SHAPE_REPRESENTATION ( '264', ( #66, #56, #58 ), #89 ) ;
#36 = AXIS2_PLACEMENT_3D ( 'NONE', #23, #74, #122 ) ;
#37 = PERSON_AND_ORGANIZATION ( #214, #148 ) ;
#38 = ORIENTED_EDGE ( 'NONE', *, *, #90, .F. ) ;
#39 = ORIENTED_EDGE ( 'NONE', *, *, #292, .T. ) ;
#40 = DIRECTION ( 'NONE',  ( 0.0000000000000000000, 0.0000000000000000000, 1.000000000000000000 ) ) ;
#41 = DIRECTION ( 'NONE',  ( -3.491481338843133355E-15, 1.224646799147353207E-16, -1.000000000000000000 ) ) ;
#42 = SECURITY_CLASSIFICATION_LEVEL ( 'unclassified' ) ;
#43 = ORIENTED_EDGE ( 'NONE', *, *, #90, .T. ) ;
#44 = MECHANICAL_CONTEXT ( 'NONE', #197, 'mechanical' ) ;
#45 = CARTESIAN_POINT ( 'NONE',  ( 2.793185071074506684E-14, 0.6999999999999962919, 8.000000000000000000 ) ) ;
#46 = FACE_OUTER_BOUND ( 'NONE', #131, .T. ) ;
#47 = CARTESIAN_POINT ( 'NONE',  ( 0.0000000000000000000, 0.0000000000000000000, 0.0000000000000000000 ) ) ;
#48 = APPROVAL_DATE_TIME ( #284, #109 ) ;
#49 = CARTESIAN_POINT ( 'NONE',  ( 6.607472258007551104E-14, -0.6999999999999982903, 8.000000000000000000 ) ) ;
#50 = CLOSED_SHELL ( 'NONE', ( #146, #240, #128, #61, #209, #156 ) ) ;
#51 = CARTESIAN_POINT ( 'NONE',  ( 6.607472258007539744E-14, -0.7000000000000036193, 29.80000000000000071 ) ) ;
#52 = DIRECTION ( 'NONE',  ( -3.491481338843133355E-15, 1.224646799147353207E-16, -1.000000000000000000 ) ) ;
#53 = AXIS2_PLACEMENT_3D ( 'NONE', #125, #15, #231 ) ;
#54 = APPROVAL_DATE_TIME ( #212, #253 ) ;
#55 = DIRECTION ( 'NONE',  ( -3.491481338843133355E-15, 1.224646799147353207E-16, -1.000000000000000000 ) ) ;
#56 = MANIFOLD_SOLID_BREP ( 'Corps-Déplacer/Copier1[2]', #113 ) ;
#57 = ORIENTED_EDGE ( 'NONE', *, *, #268, .F. ) ;
#58 = AXIS2_PLACEMENT_3D ( 'NONE', #169, #40, #13 ) ;
#59 = FACE_OUTER_BOUND ( 'NONE', #116, .T. ) ;
#60 = PERSON_AND_ORGANIZATION ( #214, #148 ) ;
#61 = ADVANCED_FACE ( 'NONE', ( #99 ), #193, .T. ) ;
#62 = ORIENTED_EDGE ( 'NONE', *, *, #208, .F. ) ;
#63 = CIRCLE ( 'NONE', #300, 0.6999999999999972911 ) ;
#64 = CIRCLE ( 'NONE', #108, 0.6999999999999972911 ) ;
#65 = PERSON_AND_ORGANIZATION ( #214, #148 ) ;
#66 = MANIFOLD_SOLID_BREP ( 'Corps-Déplacer/Copier1[1]', #50 ) ;
#67 = EDGE_LOOP ( 'NONE', ( #301, #7, #114, #281 ) ) ;
#68 = VERTEX_POINT ( 'NONE', #149 ) ;
#69 = ADVANCED_FACE ( 'NONE', ( #254 ), #73, .T. ) ;
#70 = LOCAL_TIME ( 9, 21, 39.00000000000000000, #179 ) ;
#71 = PRODUCT_DEFINITION_FORMATION_WITH_SPECIFIED_SOURCE ( 'ANY', '', #325, .NOT_KNOWN. ) ;
#72 = DIRECTION ( 'NONE',  ( -3.491481338843133355E-15, 1.224646799147353207E-16, -1.000000000000000000 ) ) ;
#73 = CYLINDRICAL_SURFACE ( 'NONE', #276, 0.6999999999999968470 ) ;
#74 = DIRECTION ( 'NONE',  ( 3.491481338843133355E-15, -1.224646799147353207E-16, 1.000000000000000000 ) ) ;
#75 = ADVANCED_FACE ( 'NONE', ( #177 ), #81, .T. ) ;
#76 = APPROVAL ( #130, 'UNSPECIFIED' ) ;
#77 = CONICAL_SURFACE ( 'NONE', #118, 0.6999999999999962919, 1.029744258676649649 ) ;
#78 = CARTESIAN_POINT ( 'NONE',  ( 1.478591340481599254E-14, -0.6999999999999982903, 8.000000000000000000 ) ) ;
#79 = LINE ( 'NONE', #14, #295 ) ;
#80 = DIRECTION ( 'NONE',  ( 4.275831445896957731E-31, 1.000000000000000000, 1.224646799147353207E-16 ) ) ;
#81 = PLANE ( 'NONE',  #264 ) ;
#82 = VECTOR ( 'NONE', #171, 999.9999999999998863 ) ;
#83 = ORIENTED_EDGE ( 'NONE', *, *, #199, .T. ) ;
#84 = DIRECTION ( 'NONE',  ( 4.275831445896958607E-31, 1.000000000000000000, 1.224646799147353207E-16 ) ) ;
#85 = CC_DESIGN_DATE_AND_TIME_ASSIGNMENT ( #24, #232, ( #167 ) ) ;
#86 = ORIENTED_EDGE ( 'NONE', *, *, #291, .F. ) ;
#87 = CC_DESIGN_PERSON_AND_ORGANIZATION_ASSIGNMENT ( #101, #152, ( #325 ) ) ;
#88 = DIRECTION ( 'NONE',  ( -3.491481338843133355E-15, 1.224646799147353207E-16, -1.000000000000000000 ) ) ;
#89 =( GEOMETRIC_REPRESENTATION_CONTEXT ( 3 ) GLOBAL_UNCERTAINTY_ASSIGNED_CONTEXT ( ( #305 ) ) GLOBAL_UNIT_ASSIGNED_CONTEXT ( ( #26, #142, #274 ) ) REPRESENTATION_CONTEXT ( 'NONE', 'WORKASPACE' ) );
#90 = EDGE_CURVE ( 'NONE', #150, #68, #33, .T. ) ;
#91 = LOCAL_TIME ( 9, 21, 39.00000000000000000, #315 ) ;
#92 = CALENDAR_DATE ( 2021, 3, 9 ) ;
#93 = EDGE_LOOP ( 'NONE', ( #38, #111, #273 ) ) ;
#94 = CONICAL_SURFACE ( 'NONE', #229, 0.6999999999999962919, 1.029744258676649649 ) ;
#95 = CC_DESIGN_DATE_AND_TIME_ASSIGNMENT ( #115, #185, ( #307 ) ) ;
#96 = DIRECTION ( 'NONE',  ( 3.491481338843133355E-15, -1.224646799147353207E-16, 1.000000000000000000 ) ) ;
#97 = LINE ( 'NONE', #303, #82 ) ;
#98 = ORIENTED_EDGE ( 'NONE', *, *, #292, .F. ) ;
#99 = FACE_OUTER_BOUND ( 'NONE', #138, .T. ) ;
#100 = CYLINDRICAL_SURFACE ( 'NONE', #285, 0.6999999999999968470 ) ;
#101 = PERSON_AND_ORGANIZATION ( #214, #148 ) ;
#102 = CARTESIAN_POINT ( 'NONE',  ( 0.0000000000000000000, 0.0000000000000000000, 0.0000000000000000000 ) ) ;
#103 = CARTESIAN_POINT ( 'NONE',  ( 2.993082012127857800E-31, 0.6999999999999968470, 8.572527594031433747E-17 ) ) ;
#104 = CARTESIAN_POINT ( 'NONE',  ( 8.572527594031425119E-17, -0.6999999999999986233, -8.572527594031484283E-17 ) ) ;
#105 = AXIS2_PLACEMENT_3D ( 'NONE', #304, #72, #277 ) ;
#106 = EDGE_CURVE ( 'NONE', #207, #28, #134, .T. ) ;
#107 = FACE_OUTER_BOUND ( 'NONE', #319, .T. ) ;
#108 = AXIS2_PLACEMENT_3D ( 'NONE', #308, #19, #16 ) ;
#109 = APPROVAL ( #18, 'UNSPECIFIED' ) ;
#110 = EDGE_CURVE ( 'NONE', #168, #28, #205, .T. ) ;
#111 = ORIENTED_EDGE ( 'NONE', *, *, #1, .T. ) ;
#112 = CARTESIAN_POINT ( 'NONE',  ( 8.572527594031405397E-17, -0.6999999999999968470, -8.572527594031462096E-17 ) ) ;
#113 = CLOSED_SHELL ( 'NONE', ( #314, #267, #329, #69, #75 ) ) ;
#114 = ORIENTED_EDGE ( 'NONE', *, *, #188, .F. ) ;
#115 = DATE_AND_TIME ( #92, #9 ) ;
#116 = EDGE_LOOP ( 'NONE', ( #237, #43, #4 ) ) ;
#117 = CARTESIAN_POINT ( 'NONE',  ( 1.047444401652940007E-13, -3.673940397442059178E-15, 30.00000000000000000 ) ) ;
#118 = AXIS2_PLACEMENT_3D ( 'NONE', #235, #31, #182 ) ;
#119 = CC_DESIGN_PERSON_AND_ORGANIZATION_ASSIGNMENT ( #65, #249, ( #307 ) ) ;
#120 = ORIENTED_EDGE ( 'NONE', *, *, #258, .F. ) ;
#121 = AXIS2_PLACEMENT_3D ( 'NONE', #337, #211, #275 ) ;
#122 = DIRECTION ( 'NONE',  ( -4.275831445896958607E-31, -1.000000000000000000, -1.224646799147353207E-16 ) ) ;
#123 = DIRECTION ( 'NONE',  ( 4.275831445896958607E-31, 1.000000000000000000, 1.224646799147353207E-16 ) ) ;
#124 = DIRECTION ( 'NONE',  ( 3.491481338843133355E-15, -1.224646799147353207E-16, 1.000000000000000000 ) ) ;
#125 = CARTESIAN_POINT ( 'NONE',  ( 1.468525547006330485E-15, -5.150894236780622425E-17, 0.4206024333192946441 ) ) ;
#126 = PERSON_AND_ORGANIZATION_ROLE ( 'creator' ) ;
#127 = DIRECTION ( 'NONE',  ( -3.491481338843133355E-15, 1.224646799147353207E-16, -1.000000000000000000 ) ) ;
#128 = ADVANCED_FACE ( 'NONE', ( #245 ), #17, .F. ) ;
#129 = DIRECTION ( 'NONE',  ( 0.0000000000000000000, 1.000000000000000000, 0.0000000000000000000 ) ) ;
#130 = APPROVAL_STATUS ( 'not_yet_approved' ) ;
#131 = EDGE_LOOP ( 'NONE', ( #86, #180, #147, #206 ) ) ;
#132 = CARTESIAN_POINT ( 'NONE',  ( 1.044687708393585322E-13, -0.5000000000000036637, 30.00000000000000000 ) ) ;
#133 = DIRECTION ( 'NONE',  ( -3.491481338843133355E-15, 1.224646799147353207E-16, -1.000000000000000000 ) ) ;
#134 = LINE ( 'NONE', #242, #184 ) ;
#135 = CALENDAR_DATE ( 2021, 3, 9 ) ;
#136 = APPROVAL_STATUS ( 'not_yet_approved' ) ;
#137 = DIRECTION ( 'NONE',  ( -3.491481338843133355E-15, 1.224646799147353207E-16, -1.000000000000000000 ) ) ;
#138 = EDGE_LOOP ( 'NONE', ( #162, #322, #250, #192 ) ) ;
#139 = AXIS2_PLACEMENT_3D ( 'NONE', #265, #269, #336 ) ;
#140 = CC_DESIGN_APPROVAL ( #253, ( #307 ) ) ;
#141 = EDGE_LOOP ( 'NONE', ( #213, #248, #190, #280 ) ) ;
#142 =( NAMED_UNIT ( * ) PLANE_ANGLE_UNIT ( ) SI_UNIT ( $, .RADIAN. ) );
#143 = PERSON_AND_ORGANIZATION_ROLE ( 'creator' ) ;
#144 = EDGE_CURVE ( 'NONE', #299, #244, #202, .T. ) ;
#145 = FACE_OUTER_BOUND ( 'NONE', #93, .T. ) ;
#146 = ADVANCED_FACE ( 'NONE', ( #151 ), #243, .T. ) ;
#147 = ORIENTED_EDGE ( 'NONE', *, *, #106, .T. ) ;
#148 = ORGANIZATION ( 'UNSPECIFIED', 'UNSPECIFIED', '' ) ;
#149 = CARTESIAN_POINT ( 'NONE',  ( 1.468525547006330091E-15, -0.6999999999999962919, 0.4206024333192945330 ) ) ;
#150 = VERTEX_POINT ( 'NONE', #223 ) ;
#151 = FACE_OUTER_BOUND ( 'NONE', #67, .T. ) ;
#152 = PERSON_AND_ORGANIZATION_ROLE ( 'design_owner' ) ;
#153 = CARTESIAN_POINT ( 'NONE',  ( 1.047444401652940007E-13, 3.749399456654588597E-33, 30.00000000000000000 ) ) ;
#154 = VECTOR ( 'NONE', #222, 1000.000000000000114 ) ;
#155 = DIRECTION ( 'NONE',  ( -3.491481338843133355E-15, 1.224646799147353207E-16, -1.000000000000000000 ) ) ;
#156 = ADVANCED_FACE ( 'NONE', ( #107 ), #204, .F. ) ;
#157 = LINE ( 'NONE', #176, #154 ) ;
#158 = AXIS2_PLACEMENT_3D ( 'NONE', #196, #52, #257 ) ;
#159 = DATE_AND_TIME ( #312, #91 ) ;
#160 = CARTESIAN_POINT ( 'NONE',  ( 1.554250822946645168E-15, 0.6999999999999962919, 0.4206024333192947551 ) ) ;
#161 = DIRECTION ( 'NONE',  ( 0.0000000000000000000, 1.000000000000000000, 0.0000000000000000000 ) ) ;
#162 = ORIENTED_EDGE ( 'NONE', *, *, #199, .F. ) ;
#163 = APPLICATION_PROTOCOL_DEFINITION ( 'international standard', 'config_control_design', 1994, #197 ) ;
#164 = DIRECTION ( 'NONE',  ( 5.502656983963560286E-31, 1.000000000000000000, 1.548860246407871718E-16 ) ) ;
#165 = ORIENTED_EDGE ( 'NONE', *, *, #239, .F. ) ;
#166 = CIRCLE ( 'NONE', #282, 0.5000000000000000000 ) ;
#167 = PRODUCT_DEFINITION ( 'UNKNOWN', '', #71, #255 ) ;
#168 = VERTEX_POINT ( 'NONE', #51 ) ;
#169 = CARTESIAN_POINT ( 'NONE',  ( 0.0000000000000000000, 0.0000000000000000000, 0.0000000000000000000 ) ) ;
#170 = CC_DESIGN_APPROVAL ( #109, ( #167 ) ) ;
#171 = DIRECTION ( 'NONE',  ( 1.903218546456022717E-15, 0.8571673007021097801, 0.5150380749100585964 ) ) ;
#172 = CALENDAR_DATE ( 2021, 3, 9 ) ;
#173 = CARTESIAN_POINT ( 'NONE',  ( 1.040461438975253740E-13, -3.649447461459112464E-15, 29.80000000000000071 ) ) ;
#174 = CC_DESIGN_PERSON_AND_ORGANIZATION_ASSIGNMENT ( #246, #5, ( #71 ) ) ;
#175 = CALENDAR_DATE ( 2021, 3, 9 ) ;
#176 = CARTESIAN_POINT ( 'NONE',  ( 1.048056725052513556E-13, -0.5000000000000036637, 30.00000000000000000 ) ) ;
#177 = FACE_OUTER_BOUND ( 'NONE', #247, .T. ) ;
#178 = CIRCLE ( 'NONE', #29, 0.6999999999999962919 ) ;
#179 = COORDINATED_UNIVERSAL_TIME_OFFSET ( 1, 0, .AHEAD. ) ;
#180 = ORIENTED_EDGE ( 'NONE', *, *, #258, .T. ) ;
#181 = DIRECTION ( 'NONE',  ( 0.0000000000000000000, 1.000000000000000000, 0.0000000000000000000 ) ) ;
#182 = DIRECTION ( 'NONE',  ( -5.502656983963560286E-31, -1.000000000000000000, -1.548860246407871718E-16 ) ) ;
#183 = DIRECTION ( 'NONE',  ( 1.798245827342160317E-15, -0.8571673007021098911, 0.5150380749100582634 ) ) ;
#184 = VECTOR ( 'NONE', #241, 1000.000000000000114 ) ;
#185 = DATE_TIME_ROLE ( 'classification_date' ) ;
#186 = EDGE_CURVE ( 'NONE', #28, #297, #79, .T. ) ;
#187 = ORIENTED_EDGE ( 'NONE', *, *, #268, .T. ) ;
#188 = EDGE_CURVE ( 'NONE', #28, #168, #194, .T. ) ;
#189 = COORDINATED_UNIVERSAL_TIME_OFFSET ( 1, 0, .AHEAD. ) ;
#190 = ORIENTED_EDGE ( 'NONE', *, *, #256, .F. ) ;
#191 = CIRCLE ( 'NONE', #320, 0.6999999999999972911 ) ;
#192 = ORIENTED_EDGE ( 'NONE', *, *, #334, .F. ) ;
#193 = CYLINDRICAL_SURFACE ( 'NONE', #105, 0.6999999999999986233 ) ;
#194 = CIRCLE ( 'NONE', #221, 0.6999999999999999556 ) ;
#195 = DIRECTION ( 'NONE',  ( -3.491481338843133355E-15, 1.224646799147353207E-16, -1.000000000000000000 ) ) ;
#196 = CARTESIAN_POINT ( 'NONE',  ( 1.047444401652940007E-13, -3.673940397442059178E-15, 30.00000000000000000 ) ) ;
#197 = APPLICATION_CONTEXT ( 'configuration controlled 3d designs of mechanical parts and assemblies' ) ;
#198 = CC_DESIGN_PERSON_AND_ORGANIZATION_ASSIGNMENT ( #260, #126, ( #167 ) ) ;
#199 = EDGE_CURVE ( 'NONE', #168, #321, #328, .T. ) ;
#200 = DIRECTION ( 'NONE',  ( -3.491481338843133355E-15, 1.224646799147353207E-16, -1.000000000000000000 ) ) ;
#201 = APPROVAL_ROLE ( '' ) ;
#202 = LINE ( 'NONE', #103, #306 ) ;
#203 = APPROVAL_ROLE ( '' ) ;
#204 = PLANE ( 'NONE',  #2 ) ;
#205 = CIRCLE ( 'NONE', #121, 0.6999999999999999556 ) ;
#206 = ORIENTED_EDGE ( 'NONE', *, *, #110, .F. ) ;
#207 = VERTEX_POINT ( 'NONE', #228 ) ;
#208 = EDGE_CURVE ( 'NONE', #68, #244, #261, .T. ) ;
#209 = ADVANCED_FACE ( 'NONE', ( #46 ), #288, .T. ) ;
#210 = CARTESIAN_POINT ( 'NONE',  ( 2.793185071074506684E-14, -9.797174393178825657E-16, 8.000000000000000000 ) ) ;
#211 = DIRECTION ( 'NONE',  ( -3.491481338843133355E-15, 1.224646799147353207E-16, -1.000000000000000000 ) ) ;
#212 = DATE_AND_TIME ( #175, #230 ) ;
#213 = ORIENTED_EDGE ( 'NONE', *, *, #226, .T. ) ;
#214 = PERSON ( 'UNSPECIFIED', 'UNSPECIFIED', 'UNSPECIFIED', ('UNSPECIFIED'), ('UNSPECIFIED'), ('UNSPECIFIED') ) ;
#215 = EDGE_LOOP ( 'NONE', ( #219, #187, #252, #62 ) ) ;
#216 = CIRCLE ( 'NONE', #270, 0.6999999999999972911 ) ;
#217 = CARTESIAN_POINT ( 'NONE',  ( 1.468525547006330485E-15, -5.150894236780622425E-17, 0.4206024333192946441 ) ) ;
#218 = EDGE_LOOP ( 'NONE', ( #39, #323 ) ) ;
#219 = ORIENTED_EDGE ( 'NONE', *, *, #234, .F. ) ;
#220 = DIRECTION ( 'NONE',  ( 0.0000000000000000000, 1.000000000000000000, 0.0000000000000000000 ) ) ;
#221 = AXIS2_PLACEMENT_3D ( 'NONE', #173, #155, #287 ) ;
#222 = DIRECTION ( 'NONE',  ( -2.382254525458708792E-15, -0.7071067811865495711, -0.7071067811865455743 ) ) ;
#223 = CARTESIAN_POINT ( 'NONE',  ( 0.0000000000000000000, 0.0000000000000000000, 0.0000000000000000000 ) ) ;
#224 = CC_DESIGN_APPROVAL ( #76, ( #71 ) ) ;
#225 = DIRECTION ( 'NONE',  ( -3.491481338843133355E-15, 1.224646799147353207E-16, -1.000000000000000000 ) ) ;
#226 = EDGE_CURVE ( 'NONE', #299, #278, #63, .T. ) ;
#227 = DIRECTION ( 'NONE',  ( -5.502656983963560286E-31, -1.000000000000000000, -1.548860246407871718E-16 ) ) ;
#228 = CARTESIAN_POINT ( 'NONE',  ( 1.047444401652940007E-13, 0.4999999999999963363, 30.00000000000000000 ) ) ;
#229 = AXIS2_PLACEMENT_3D ( 'NONE', #217, #124, #227 ) ;
#230 = LOCAL_TIME ( 9, 21, 39.00000000000000000, #189 ) ;
#231 = DIRECTION ( 'NONE',  ( 5.502656983963560286E-31, 1.000000000000000000, 1.548860246407871718E-16 ) ) ;
#232 = DATE_TIME_ROLE ( 'creation_date' ) ;
#233 = DIRECTION ( 'NONE',  ( -3.491481338843133355E-15, 1.224646799147353207E-16, -1.000000000000000000 ) ) ;
#234 = EDGE_CURVE ( 'NONE', #278, #68, #271, .T. ) ;
#235 = CARTESIAN_POINT ( 'NONE',  ( 1.468525547006330485E-15, -5.150894236780622425E-17, 0.4206024333192946441 ) ) ;
#236 = CARTESIAN_POINT ( 'NONE',  ( 1.468525547006330485E-15, -5.150894236780622425E-17, 0.4206024333192946441 ) ) ;
#237 = ORIENTED_EDGE ( 'NONE', *, *, #1, .F. ) ;
#238 = CARTESIAN_POINT ( 'NONE',  ( 1.047444401652940007E-13, -3.673940397442059178E-15, 30.00000000000000000 ) ) ;
#239 = EDGE_CURVE ( 'NONE', #207, #335, #21, .T. ) ;
#240 = ADVANCED_FACE ( 'NONE', ( #27 ), #272, .T. ) ;
#241 = DIRECTION ( 'NONE',  ( -2.468850131082257455E-15, 0.7071067811865497932, -0.7071067811865453523 ) ) ;
#242 = CARTESIAN_POINT ( 'NONE',  ( 1.047444401652940007E-13, 0.4999999999999963363, 30.00000000000000000 ) ) ;
#243 = CONICAL_SURFACE ( 'NONE', #158, 0.5000000000000000000, 0.7853981633974512766 ) ;
#244 = VERTEX_POINT ( 'NONE', #160 ) ;
#245 = FACE_OUTER_BOUND ( 'NONE', #218, .T. ) ;
#246 = PERSON_AND_ORGANIZATION ( #214, #148 ) ;
#247 = EDGE_LOOP ( 'NONE', ( #293, #57 ) ) ;
#248 = ORIENTED_EDGE ( 'NONE', *, *, #234, .T. ) ;
#249 = PERSON_AND_ORGANIZATION_ROLE ( 'classification_officer' ) ;
#250 = ORIENTED_EDGE ( 'NONE', *, *, #186, .T. ) ;
#251 = VECTOR ( 'NONE', #183, 1000.000000000000000 ) ;
#252 = ORIENTED_EDGE ( 'NONE', *, *, #144, .T. ) ;
#253 = APPROVAL ( #136, 'UNSPECIFIED' ) ;
#254 = FACE_OUTER_BOUND ( 'NONE', #215, .T. ) ;
#255 = DESIGN_CONTEXT ( 'detailed design', #25, 'design' ) ;
#256 = EDGE_CURVE ( 'NONE', #244, #68, #178, .T. ) ;
#257 = DIRECTION ( 'NONE',  ( 0.0000000000000000000, 1.000000000000000000, 0.0000000000000000000 ) ) ;
#258 = EDGE_CURVE ( 'NONE', #335, #207, #166, .T. ) ;
#259 = AXIS2_PLACEMENT_3D ( 'NONE', #238, #55, #161 ) ;
#260 = PERSON_AND_ORGANIZATION ( #214, #148 ) ;
#261 = CIRCLE ( 'NONE', #53, 0.6999999999999962919 ) ;
#262 = PERSON_AND_ORGANIZATION ( #214, #148 ) ;
#263 = CARTESIAN_POINT ( 'NONE',  ( 2.793185071074506684E-14, -9.797174393178825657E-16, 8.000000000000000000 ) ) ;
#264 = AXIS2_PLACEMENT_3D ( 'NONE', #290, #96, #294 ) ;
#265 = CARTESIAN_POINT ( 'NONE',  ( 1.047444401652940007E-13, -3.673940397442059178E-15, 30.00000000000000000 ) ) ;
#266 = ORIENTED_EDGE ( 'NONE', *, *, #186, .F. ) ;
#267 = ADVANCED_FACE ( 'NONE', ( #145 ), #94, .T. ) ;
#268 = EDGE_CURVE ( 'NONE', #278, #299, #64, .T. ) ;
#269 = DIRECTION ( 'NONE',  ( -3.491481338843133355E-15, 1.224646799147353207E-16, -1.000000000000000000 ) ) ;
#270 = AXIS2_PLACEMENT_3D ( 'NONE', #210, #233, #181 ) ;
#271 = LINE ( 'NONE', #112, #326 ) ;
#272 = CYLINDRICAL_SURFACE ( 'NONE', #12, 0.6999999999999986233 ) ;
#273 = ORIENTED_EDGE ( 'NONE', *, *, #256, .T. ) ;
#274 =( NAMED_UNIT ( * ) SI_UNIT ( $, .STERADIAN. ) SOLID_ANGLE_UNIT ( ) );
#275 = DIRECTION ( 'NONE',  ( 0.0000000000000000000, 1.000000000000000000, 0.0000000000000000000 ) ) ;
#276 = AXIS2_PLACEMENT_3D ( 'NONE', #47, #311, #84 ) ;
#277 = DIRECTION ( 'NONE',  ( 4.275831445896957731E-31, 1.000000000000000000, 1.224646799147353207E-16 ) ) ;
#278 = VERTEX_POINT ( 'NONE', #78 ) ;
#279 = APPROVAL_DATE_TIME ( #159, #76 ) ;
#280 = ORIENTED_EDGE ( 'NONE', *, *, #144, .F. ) ;
#281 = ORIENTED_EDGE ( 'NONE', *, *, #106, .F. ) ;
#282 = AXIS2_PLACEMENT_3D ( 'NONE', #117, #41, #8 ) ;
#283 = CARTESIAN_POINT ( 'NONE',  ( 1.040461438975253740E-13, 0.6999999999999962919, 29.80000000000000071 ) ) ;
#284 = DATE_AND_TIME ( #172, #316 ) ;
#285 = AXIS2_PLACEMENT_3D ( 'NONE', #102, #195, #310 ) ;
#286 = APPROVAL_PERSON_ORGANIZATION ( #333, #76, #203 ) ;
#287 = DIRECTION ( 'NONE',  ( 0.0000000000000000000, 1.000000000000000000, 0.0000000000000000000 ) ) ;
#288 = CONICAL_SURFACE ( 'NONE', #139, 0.5000000000000000000, 0.7853981633974512766 ) ;
#289 = CC_DESIGN_SECURITY_CLASSIFICATION ( #307, ( #71 ) ) ;
#290 = CARTESIAN_POINT ( 'NONE',  ( 2.793185071074506684E-14, 5.249159239316466732E-33, 8.000000000000000000 ) ) ;
#291 = EDGE_CURVE ( 'NONE', #335, #168, #157, .T. ) ;
#292 = EDGE_CURVE ( 'NONE', #297, #321, #191, .T. ) ;
#293 = ORIENTED_EDGE ( 'NONE', *, *, #226, .F. ) ;
#294 = DIRECTION ( 'NONE',  ( -4.275831445896958607E-31, -1.000000000000000000, -1.224646799147353207E-16 ) ) ;
#295 = VECTOR ( 'NONE', #225, 1000.000000000000000 ) ;
#296 = CARTESIAN_POINT ( 'NONE',  ( 2.793185071074506684E-14, -9.797174393178825657E-16, 8.000000000000000000 ) ) ;
#297 = VERTEX_POINT ( 'NONE', #45 ) ;
#298 = SHAPE_DEFINITION_REPRESENTATION ( #3, #35 ) ;
#299 = VERTEX_POINT ( 'NONE', #324 ) ;
#300 = AXIS2_PLACEMENT_3D ( 'NONE', #296, #88, #129 ) ;
#301 = ORIENTED_EDGE ( 'NONE', *, *, #239, .T. ) ;
#302 = CARTESIAN_POINT ( 'NONE',  ( 1.468525547006330091E-15, -0.6999999999999962919, 0.4206024333192945330 ) ) ;
#303 = CARTESIAN_POINT ( 'NONE',  ( 1.554250822946645168E-15, 0.6999999999999962919, 0.4206024333192947551 ) ) ;
#304 = CARTESIAN_POINT ( 'NONE',  ( 0.0000000000000000000, 0.0000000000000000000, 0.0000000000000000000 ) ) ;
#305 = UNCERTAINTY_MEASURE_WITH_UNIT (LENGTH_MEASURE( 1.000000000000000082E-05 ), #26, 'distance_accuracy_value', 'NONE');
#306 = VECTOR ( 'NONE', #127, 1000.000000000000000 ) ;
#307 = SECURITY_CLASSIFICATION ( '', '', #42 ) ;
#308 = CARTESIAN_POINT ( 'NONE',  ( 2.793185071074506684E-14, -9.797174393178825657E-16, 8.000000000000000000 ) ) ;
#309 = COORDINATED_UNIVERSAL_TIME_OFFSET ( 1, 0, .AHEAD. ) ;
#310 = DIRECTION ( 'NONE',  ( 4.275831445896958607E-31, 1.000000000000000000, 1.224646799147353207E-16 ) ) ;
#311 = DIRECTION ( 'NONE',  ( -3.491481338843133355E-15, 1.224646799147353207E-16, -1.000000000000000000 ) ) ;
#312 = CALENDAR_DATE ( 2021, 3, 9 ) ;
#313 = VECTOR ( 'NONE', #200, 1000.000000000000000 ) ;
#314 = ADVANCED_FACE ( 'NONE', ( #11 ), #100, .T. ) ;
#315 = COORDINATED_UNIVERSAL_TIME_OFFSET ( 1, 0, .AHEAD. ) ;
#316 = LOCAL_TIME ( 9, 21, 39.00000000000000000, #309 ) ;
#317 = EDGE_LOOP ( 'NONE', ( #34, #83, #98, #266 ) ) ;
#318 = APPROVAL_ROLE ( '' ) ;
#319 = EDGE_LOOP ( 'NONE', ( #165, #120 ) ) ;
#320 = AXIS2_PLACEMENT_3D ( 'NONE', #263, #22, #220 ) ;
#321 = VERTEX_POINT ( 'NONE', #49 ) ;
#322 = ORIENTED_EDGE ( 'NONE', *, *, #110, .T. ) ;
#323 = ORIENTED_EDGE ( 'NONE', *, *, #334, .T. ) ;
#324 = CARTESIAN_POINT ( 'NONE',  ( 2.793185071074506684E-14, 0.6999999999999962919, 8.000000000000000000 ) ) ;
#325 = PRODUCT ( '264', '264', '', ( #44 ) ) ;
#326 = VECTOR ( 'NONE', #133, 1000.000000000000000 ) ;
#327 = APPLICATION_PROTOCOL_DEFINITION ( 'international standard', 'config_control_design', 1994, #25 ) ;
#328 = LINE ( 'NONE', #104, #313 ) ;
#329 = ADVANCED_FACE ( 'NONE', ( #59 ), #77, .T. ) ;
#330 = APPROVAL_PERSON_ORGANIZATION ( #262, #109, #201 ) ;
#331 = PRODUCT_RELATED_PRODUCT_CATEGORY ( 'detail', '', ( #325 ) ) ;
#332 = DIRECTION ( 'NONE',  ( -3.491481338843133355E-15, 1.224646799147353207E-16, -1.000000000000000000 ) ) ;
#333 = PERSON_AND_ORGANIZATION ( #214, #148 ) ;
#334 = EDGE_CURVE ( 'NONE', #321, #297, #216, .T. ) ;
#335 = VERTEX_POINT ( 'NONE', #132 ) ;
#336 = DIRECTION ( 'NONE',  ( 0.0000000000000000000, 1.000000000000000000, 0.0000000000000000000 ) ) ;
#337 = CARTESIAN_POINT ( 'NONE',  ( 1.040461438975253740E-13, -3.649447461459112464E-15, 29.80000000000000071 ) ) ;
ENDSEC;
END-ISO-10303-21;
