ISO-10303-21;
HEADER;
FILE_DESCRIPTION (( 'STEP AP203' ),
    '1' );
FILE_NAME ('2634.step',
    '2021-12-06T12:58:36',
    ( '' ),
    ( '' ),
    'SwSTEP 2.0',
    'SolidWorks 2019',
    '' );
FILE_SCHEMA (( 'CONFIG_CONTROL_DESIGN' ));
ENDSEC;

DATA;
#1 = LOCAL_TIME ( 13, 58, 36.00000000000000000, #132 ) ;
#2 = EDGE_LOOP ( 'NONE', ( #126 ) ) ;
#3 = APPROVAL_PERSON_ORGANIZATION ( #29, #92, #58 ) ;
#4 = ADVANCED_FACE ( 'NONE', ( #68, #119 ), #39, .F. ) ;
#5 = ORIENTED_EDGE ( 'NONE', *, *, #112, .T. ) ;
#6 = DIRECTION ( 'NONE',  ( 7.826001043859244324E-31, 1.000000000000000000, 2.237242578144691814E-16 ) ) ;
#7 = PLANE ( 'NONE',  #54 ) ;
#8 = APPROVAL_STATUS ( 'not_yet_approved' ) ;
#9 = DIRECTION ( 'NONE',  ( -3.491481338843133355E-15, 2.245185798436813515E-16, -1.000000000000000000 ) ) ;
#10 = COORDINATED_UNIVERSAL_TIME_OFFSET ( 1, 0, .AHEAD. ) ;
#11 = APPLICATION_CONTEXT ( 'configuration controlled 3d designs of mechanical parts and assemblies' ) ;
#12 = MANIFOLD_SOLID_BREP ( 'Corps-Déplacer/Copier1', #85 ) ;
#13 = CALENDAR_DATE ( 2021, 6, 12 ) ;
#14 = AXIS2_PLACEMENT_3D ( 'NONE', #116, #150, #25 ) ;
#15 = PRODUCT ( '2634', '2634', '', ( #51 ) ) ;
#16 = DATE_TIME_ROLE ( 'creation_date' ) ;
#17 = APPROVAL_DATE_TIME ( #135, #92 ) ;
#18 = EDGE_CURVE ( 'NONE', #23, #23, #139, .T. ) ;
#19 = ADVANCED_FACE ( 'NONE', ( #168, #114 ), #7, .T. ) ;
#20 = AXIS2_PLACEMENT_3D ( 'NONE', #88, #9, #129 ) ;
#21 = FACE_BOUND ( 'NONE', #167, .T. ) ;
#22 = CC_DESIGN_DATE_AND_TIME_ASSIGNMENT ( #82, #157, ( #89 ) ) ;
#23 = VERTEX_POINT ( 'NONE', #138 ) ;
#24 = CC_DESIGN_APPROVAL ( #92, ( #89 ) ) ;
#25 = DIRECTION ( 'NONE',  ( -7.839024317477754818E-31, -1.000000000000000000, -2.245185798436813515E-16 ) ) ;
#26 = EDGE_LOOP ( 'NONE', ( #57 ) ) ;
#27 = VERTEX_POINT ( 'NONE', #86 ) ;
#28 = EDGE_LOOP ( 'NONE', ( #75 ) ) ;
#29 = PERSON_AND_ORGANIZATION ( #164, #110 ) ;
#30 = APPROVAL_DATE_TIME ( #32, #66 ) ;
#31 = PERSON_AND_ORGANIZATION ( #164, #110 ) ;
#32 = DATE_AND_TIME ( #96, #1 ) ;
#33 = PERSON_AND_ORGANIZATION_ROLE ( 'design_owner' ) ;
#34 = CC_DESIGN_PERSON_AND_ORGANIZATION_ASSIGNMENT ( #69, #120, ( #89 ) ) ;
#35 = APPROVAL ( #142, 'UNSPECIFIED' ) ;
#36 = CIRCLE ( 'NONE', #149, 31.50000000000000000 ) ;
#37 = DIRECTION ( 'NONE',  ( -3.491481338843133355E-15, 2.245185798436813515E-16, -1.000000000000000000 ) ) ;
#38 = FACE_OUTER_BOUND ( 'NONE', #2, .T. ) ;
#39 = CYLINDRICAL_SURFACE ( 'NONE', #20, 8.000000000000000000 ) ;
#40 = DIRECTION ( 'NONE',  ( 0.0000000000000000000, 0.0000000000000000000, 1.000000000000000000 ) ) ;
#41 = APPROVAL_PERSON_ORGANIZATION ( #31, #35, #146 ) ;
#42 =( NAMED_UNIT ( * ) PLANE_ANGLE_UNIT ( ) SI_UNIT ( $, .RADIAN. ) );
#43 = PLANE ( 'NONE',  #14 ) ;
#44 = DATE_AND_TIME ( #91, #143 ) ;
#45 = APPROVAL_DATE_TIME ( #144, #35 ) ;
#46 = COORDINATED_UNIVERSAL_TIME_OFFSET ( 1, 0, .AHEAD. ) ;
#47 = CALENDAR_DATE ( 2021, 6, 12 ) ;
#48 = EDGE_CURVE ( 'NONE', #27, #27, #169, .T. ) ;
#49 = DIRECTION ( 'NONE',  ( -3.491481338843133355E-15, 2.245185798436813515E-16, -1.000000000000000000 ) ) ;
#50 = CARTESIAN_POINT ( 'NONE',  ( 0.0000000000000000000, 0.0000000000000000000, 0.0000000000000000000 ) ) ;
#51 = MECHANICAL_CONTEXT ( 'NONE', #107, 'mechanical' ) ;
#52 = ADVANCED_FACE ( 'NONE', ( #156, #38 ), #73, .T. ) ;
#53 = EDGE_LOOP ( 'NONE', ( #163 ) ) ;
#54 = AXIS2_PLACEMENT_3D ( 'NONE', #87, #103, #55 ) ;
#55 = DIRECTION ( 'NONE',  ( 7.839024317477754818E-31, 1.000000000000000000, 2.245185798436813515E-16 ) ) ;
#56 = DIRECTION ( 'NONE',  ( 7.703719777548943412E-31, 1.000000000000000000, 2.303929616531696922E-16 ) ) ;
#57 = ORIENTED_EDGE ( 'NONE', *, *, #61, .F. ) ;
#58 = APPROVAL_ROLE ( '' ) ;
#59 = APPLICATION_PROTOCOL_DEFINITION ( 'international standard', 'config_control_design', 1994, #11 ) ;
#60 = AXIS2_PLACEMENT_3D ( 'NONE', #50, #113, #162 ) ;
#61 = EDGE_CURVE ( 'NONE', #74, #74, #36, .T. ) ;
#62 = CC_DESIGN_PERSON_AND_ORGANIZATION_ASSIGNMENT ( #70, #93, ( #125 ) ) ;
#63 = DIRECTION ( 'NONE',  ( -3.491481338843133355E-15, 2.245185798436813515E-16, -1.000000000000000000 ) ) ;
#64 = CARTESIAN_POINT ( 'NONE',  ( 0.0000000000000000000, 0.0000000000000000000, 0.0000000000000000000 ) ) ;
#65 = DIRECTION ( 'NONE',  ( 1.000000000000000000, 0.0000000000000000000, 0.0000000000000000000 ) ) ;
#66 = APPROVAL ( #8, 'UNSPECIFIED' ) ;
#67 = DIRECTION ( 'NONE',  ( 7.839024317477754818E-31, 1.000000000000000000, 2.245185798436813515E-16 ) ) ;
#68 = FACE_OUTER_BOUND ( 'NONE', #53, .T. ) ;
#69 = PERSON_AND_ORGANIZATION ( #164, #110 ) ;
#70 = PERSON_AND_ORGANIZATION ( #164, #110 ) ;
#71 = CC_DESIGN_DATE_AND_TIME_ASSIGNMENT ( #44, #16, ( #95 ) ) ;
#72 =( NAMED_UNIT ( * ) SI_UNIT ( $, .STERADIAN. ) SOLID_ANGLE_UNIT ( ) );
#73 = CYLINDRICAL_SURFACE ( 'NONE', #60, 31.50000000000000000 ) ;
#74 = VERTEX_POINT ( 'NONE', #76 ) ;
#75 = ORIENTED_EDGE ( 'NONE', *, *, #61, .T. ) ;
#76 = CARTESIAN_POINT ( 'NONE',  ( 2.094888803305879619E-15, 31.50000000000000000, 0.5999999999999999778 ) ) ;
#77 = ORIENTED_EDGE ( 'NONE', *, *, #112, .F. ) ;
#78 = CIRCLE ( 'NONE', #130, 8.000000000000000000 ) ;
#79 =( GEOMETRIC_REPRESENTATION_CONTEXT ( 3 ) GLOBAL_UNCERTAINTY_ASSIGNED_CONTEXT ( ( #104 ) ) GLOBAL_UNIT_ASSIGNED_CONTEXT ( ( #166, #42, #72 ) ) REPRESENTATION_CONTEXT ( 'NONE', 'WORKASPACE' ) );
#80 = PERSON_AND_ORGANIZATION ( #164, #110 ) ;
#81 = CALENDAR_DATE ( 2021, 6, 12 ) ;
#82 = DATE_AND_TIME ( #81, #83 ) ;
#83 = LOCAL_TIME ( 13, 58, 36.00000000000000000, #46 ) ;
#84 = PERSON_AND_ORGANIZATION_ROLE ( 'creator' ) ;
#85 = CLOSED_SHELL ( 'NONE', ( #19, #52, #123, #4 ) ) ;
#86 = CARTESIAN_POINT ( 'NONE',  ( -5.473822126268816683E-45, 31.50000000000000000, 0.0000000000000000000 ) ) ;
#87 = CARTESIAN_POINT ( 'NONE',  ( -9.210853573036361867E-30, 8.000000000000000000, -2.638093313163255744E-15 ) ) ;
#88 = CARTESIAN_POINT ( 'NONE',  ( 0.0000000000000000000, 0.0000000000000000000, 0.0000000000000000000 ) ) ;
#89 = SECURITY_CLASSIFICATION ( '', '', #158 ) ;
#90 = FACE_OUTER_BOUND ( 'NONE', #26, .T. ) ;
#91 = CALENDAR_DATE ( 2021, 6, 12 ) ;
#92 = APPROVAL ( #108, 'UNSPECIFIED' ) ;
#93 = PERSON_AND_ORGANIZATION_ROLE ( 'creator' ) ;
#94 = PERSON_AND_ORGANIZATION ( #164, #110 ) ;
#95 = PRODUCT_DEFINITION ( 'UNKNOWN', '', #125, #98 ) ;
#96 = CALENDAR_DATE ( 2021, 6, 12 ) ;
#97 = COORDINATED_UNIVERSAL_TIME_OFFSET ( 1, 0, .AHEAD. ) ;
#98 = DESIGN_CONTEXT ( 'detailed design', #11, 'design' ) ;
#99 = CC_DESIGN_SECURITY_CLASSIFICATION ( #89, ( #125 ) ) ;
#100 = LOCAL_TIME ( 13, 58, 36.00000000000000000, #97 ) ;
#101 = APPROVAL_PERSON_ORGANIZATION ( #160, #66, #122 ) ;
#102 = AXIS2_PLACEMENT_3D ( 'NONE', #64, #40, #65 ) ;
#103 = DIRECTION ( 'NONE',  ( -3.491481338843133355E-15, 2.245185798436813515E-16, -1.000000000000000000 ) ) ;
#104 = UNCERTAINTY_MEASURE_WITH_UNIT (LENGTH_MEASURE( 1.000000000000000082E-05 ), #166, 'distance_accuracy_value', 'NONE');
#105 = VERTEX_POINT ( 'NONE', #136 ) ;
#106 = DIRECTION ( 'NONE',  ( 7.839024317477753942E-31, 1.000000000000000000, 2.245185798436813515E-16 ) ) ;
#107 = APPLICATION_CONTEXT ( 'configuration controlled 3d designs of mechanical parts and assemblies' ) ;
#108 = APPROVAL_STATUS ( 'not_yet_approved' ) ;
#109 = PERSON_AND_ORGANIZATION_ROLE ( 'design_supplier' ) ;
#110 = ORGANIZATION ( 'UNSPECIFIED', 'UNSPECIFIED', '' ) ;
#111 = CC_DESIGN_APPROVAL ( #66, ( #95 ) ) ;
#112 = EDGE_CURVE ( 'NONE', #105, #105, #78, .T. ) ;
#113 = DIRECTION ( 'NONE',  ( -3.491481338843133355E-15, 2.245185798436813515E-16, -1.000000000000000000 ) ) ;
#114 = FACE_BOUND ( 'NONE', #128, .T. ) ;
#115 = EDGE_LOOP ( 'NONE', ( #151 ) ) ;
#116 = CARTESIAN_POINT ( 'NONE',  ( 2.094888803305870941E-15, 8.000000000000000000, 0.5999999999999973133 ) ) ;
#117 = CC_DESIGN_PERSON_AND_ORGANIZATION_ASSIGNMENT ( #94, #33, ( #15 ) ) ;
#118 = APPLICATION_PROTOCOL_DEFINITION ( 'international standard', 'config_control_design', 1994, #107 ) ;
#119 = FACE_OUTER_BOUND ( 'NONE', #152, .T. ) ;
#120 = PERSON_AND_ORGANIZATION_ROLE ( 'classification_officer' ) ;
#121 = CC_DESIGN_PERSON_AND_ORGANIZATION_ASSIGNMENT ( #80, #109, ( #125 ) ) ;
#122 = APPROVAL_ROLE ( '' ) ;
#123 = ADVANCED_FACE ( 'NONE', ( #21, #90 ), #43, .T. ) ;
#124 = AXIS2_PLACEMENT_3D ( 'NONE', #165, #63, #67 ) ;
#125 = PRODUCT_DEFINITION_FORMATION_WITH_SPECIFIED_SOURCE ( 'ANY', '', #15, .NOT_KNOWN. ) ;
#126 = ORIENTED_EDGE ( 'NONE', *, *, #48, .F. ) ;
#127 = CARTESIAN_POINT ( 'NONE',  ( 2.094888803305855164E-15, -1.347111479062072233E-16, 0.5999999999999928724 ) ) ;
#128 = EDGE_LOOP ( 'NONE', ( #155 ) ) ;
#129 = DIRECTION ( 'NONE',  ( 7.839024317477754818E-31, 1.000000000000000000, 2.245185798436813515E-16 ) ) ;
#130 = AXIS2_PLACEMENT_3D ( 'NONE', #137, #49, #56 ) ;
#131 = PERSON_AND_ORGANIZATION ( #164, #110 ) ;
#132 = COORDINATED_UNIVERSAL_TIME_OFFSET ( 1, 0, .AHEAD. ) ;
#133 = LOCAL_TIME ( 13, 58, 36.00000000000000000, #10 ) ;
#134 = SHAPE_DEFINITION_REPRESENTATION ( #153, #145 ) ;
#135 = DATE_AND_TIME ( #47, #100 ) ;
#136 = CARTESIAN_POINT ( 'NONE',  ( 2.094888803305879224E-15, 8.000000000000000000, 0.5999999999999999778 ) ) ;
#137 = CARTESIAN_POINT ( 'NONE',  ( 2.094888803305873308E-15, -1.347111479062084066E-16, 0.5999999999999980904 ) ) ;
#138 = CARTESIAN_POINT ( 'NONE',  ( 0.0000000000000000000, 8.000000000000000000, 0.0000000000000000000 ) ) ;
#139 = CIRCLE ( 'NONE', #124, 8.000000000000000000 ) ;
#140 = CARTESIAN_POINT ( 'NONE',  ( -2.469292660005493179E-29, 1.587870669893240585E-30, -7.072335265075962695E-15 ) ) ;
#141 = DIRECTION ( 'NONE',  ( -3.491481338843133355E-15, 2.245185798436813515E-16, -1.000000000000000000 ) ) ;
#142 = APPROVAL_STATUS ( 'not_yet_approved' ) ;
#143 = LOCAL_TIME ( 13, 58, 36.00000000000000000, #148 ) ;
#144 = DATE_AND_TIME ( #13, #133 ) ;
#145 = ADVANCED_BREP_SHAPE_REPRESENTATION ( '2634', ( #12, #102 ), #79 ) ;
#146 = APPROVAL_ROLE ( '' ) ;
#147 = CC_DESIGN_PERSON_AND_ORGANIZATION_ASSIGNMENT ( #131, #84, ( #95 ) ) ;
#148 = COORDINATED_UNIVERSAL_TIME_OFFSET ( 1, 0, .AHEAD. ) ;
#149 = AXIS2_PLACEMENT_3D ( 'NONE', #127, #37, #6 ) ;
#150 = DIRECTION ( 'NONE',  ( 3.491481338843133355E-15, -2.245185798436813515E-16, 1.000000000000000000 ) ) ;
#151 = ORIENTED_EDGE ( 'NONE', *, *, #48, .T. ) ;
#152 = EDGE_LOOP ( 'NONE', ( #77 ) ) ;
#153 = PRODUCT_DEFINITION_SHAPE ( 'NONE', 'NONE',  #95 ) ;
#154 = CC_DESIGN_APPROVAL ( #35, ( #125 ) ) ;
#155 = ORIENTED_EDGE ( 'NONE', *, *, #18, .F. ) ;
#156 = FACE_OUTER_BOUND ( 'NONE', #28, .T. ) ;
#157 = DATE_TIME_ROLE ( 'classification_date' ) ;
#158 = SECURITY_CLASSIFICATION_LEVEL ( 'unclassified' ) ;
#159 = PRODUCT_RELATED_PRODUCT_CATEGORY ( 'detail', '', ( #15 ) ) ;
#160 = PERSON_AND_ORGANIZATION ( #164, #110 ) ;
#161 = AXIS2_PLACEMENT_3D ( 'NONE', #140, #141, #106 ) ;
#162 = DIRECTION ( 'NONE',  ( 7.839024317477753942E-31, 1.000000000000000000, 2.245185798436813515E-16 ) ) ;
#163 = ORIENTED_EDGE ( 'NONE', *, *, #18, .T. ) ;
#164 = PERSON ( 'UNSPECIFIED', 'UNSPECIFIED', 'UNSPECIFIED', ('UNSPECIFIED'), ('UNSPECIFIED'), ('UNSPECIFIED') ) ;
#165 = CARTESIAN_POINT ( 'NONE',  ( -6.271219453982203854E-30, 4.032687415601881017E-31, -1.796148638749450812E-15 ) ) ;
#166 =( LENGTH_UNIT ( ) NAMED_UNIT ( * ) SI_UNIT ( .MILLI., .METRE. ) );
#167 = EDGE_LOOP ( 'NONE', ( #5 ) ) ;
#168 = FACE_OUTER_BOUND ( 'NONE', #115, .T. ) ;
#169 = CIRCLE ( 'NONE', #161, 31.50000000000000000 ) ;
ENDSEC;
END-ISO-10303-21;
