ISO-10303-21;
HEADER;
FILE_DESCRIPTION (( 'STEP AP203' ),
    '1' );
FILE_NAME ('263.step',
    '2021-09-03T07:21:39',
    ( '' ),
    ( '' ),
    'SwSTEP 2.0',
    'SolidWorks 2019',
    '' );
FILE_SCHEMA (( 'CONFIG_CONTROL_DESIGN' ));
ENDSEC;

DATA;
#1 = PERSON_AND_ORGANIZATION ( #255, #236 ) ;
#2 = CC_DESIGN_PERSON_AND_ORGANIZATION_ASSIGNMENT ( #68, #313, ( #141 ) ) ;
#3 = ORIENTED_EDGE ( 'NONE', *, *, #250, .T. ) ;
#4 = CLOSED_SHELL ( 'NONE', ( #185, #7, #71, #304, #326, #139 ) ) ;
#5 = CARTESIAN_POINT ( 'NONE',  ( 1.047444401652940007E-13, -3.673940397442059178E-15, 30.00000000000000000 ) ) ;
#6 = CYLINDRICAL_SURFACE ( 'NONE', #163, 0.6749999999999968248 ) ;
#7 = ADVANCED_FACE ( 'NONE', ( #272 ), #248, .T. ) ;
#8 = FACE_OUTER_BOUND ( 'NONE', #197, .T. ) ;
#9 = VECTOR ( 'NONE', #260, 1000.000000000000000 ) ;
#10 =( NAMED_UNIT ( * ) PLANE_ANGLE_UNIT ( ) SI_UNIT ( $, .RADIAN. ) );
#11 = AXIS2_PLACEMENT_3D ( 'NONE', #231, #151, #111 ) ;
#12 = LOCAL_TIME ( 9, 21, 39.00000000000000000, #310 ) ;
#13 = CARTESIAN_POINT ( 'NONE',  ( 2.793185071074506684E-14, 0.6749999999999963807, 8.000000000000000000 ) ) ;
#14 = CALENDAR_DATE ( 2021, 3, 9 ) ;
#15 = AXIS2_PLACEMENT_3D ( 'NONE', #70, #275, #26 ) ;
#16 = EDGE_LOOP ( 'NONE', ( #126, #223, #62, #323 ) ) ;
#17 = MECHANICAL_CONTEXT ( 'NONE', #213, 'mechanical' ) ;
#18 = EDGE_LOOP ( 'NONE', ( #3, #112 ) ) ;
#19 = DATE_AND_TIME ( #14, #152 ) ;
#20 = ORIENTED_EDGE ( 'NONE', *, *, #249, .T. ) ;
#21 = CONICAL_SURFACE ( 'NONE', #285, 0.4750000000000000333, 0.7853981633974512766 ) ;
#22 = CARTESIAN_POINT ( 'NONE',  ( 1.416078206041818478E-15, -4.966933728324170369E-17, 0.4055809178436054485 ) ) ;
#23 = VERTEX_POINT ( 'NONE', #305 ) ;
#24 = ADVANCED_FACE ( 'NONE', ( #67 ), #6, .T. ) ;
#25 = ORIENTED_EDGE ( 'NONE', *, *, #59, .T. ) ;
#26 = DIRECTION ( 'NONE',  ( 0.0000000000000000000, 1.000000000000000000, 0.0000000000000000000 ) ) ;
#27 = PLANE ( 'NONE',  #251 ) ;
#28 = DIRECTION ( 'NONE',  ( 0.0000000000000000000, 1.000000000000000000, 0.0000000000000000000 ) ) ;
#29 = CARTESIAN_POINT ( 'NONE',  ( 6.607166096307751076E-14, -0.6750000000000037081, 29.80000000000000071 ) ) ;
#30 = CARTESIAN_POINT ( 'NONE',  ( 1.416078206041818478E-15, -4.966933728324170369E-17, 0.4055809178436054485 ) ) ;
#31 = DIRECTION ( 'NONE',  ( -3.491481338843133355E-15, 1.224646799147353207E-16, -1.000000000000000000 ) ) ;
#32 = CARTESIAN_POINT ( 'NONE',  ( 1.047444401652940007E-13, -3.673940397442059178E-15, 30.00000000000000000 ) ) ;
#33 = APPROVAL_PERSON_ORGANIZATION ( #95, #140, #42 ) ;
#34 = CARTESIAN_POINT ( 'NONE',  ( 2.793185071074506684E-14, -9.797174393178825657E-16, 8.000000000000000000 ) ) ;
#35 = ORIENTED_EDGE ( 'NONE', *, *, #186, .T. ) ;
#36 = DIRECTION ( 'NONE',  ( 1.798245827342160317E-15, -0.8571673007021098911, 0.5150380749100582634 ) ) ;
#37 = CIRCLE ( 'NONE', #138, 0.6750000000000000444 ) ;
#38 = PERSON_AND_ORGANIZATION ( #255, #236 ) ;
#39 = AXIS2_PLACEMENT_3D ( 'NONE', #167, #222, #187 ) ;
#40 = ORIENTED_EDGE ( 'NONE', *, *, #130, .T. ) ;
#41 = VERTEX_POINT ( 'NONE', #29 ) ;
#42 = APPROVAL_ROLE ( '' ) ;
#43 = VERTEX_POINT ( 'NONE', #77 ) ;
#44 = CARTESIAN_POINT ( 'NONE',  ( 1.416078206041818281E-15, -0.6749999999999963807, 0.4055809178436053375 ) ) ;
#45 = DESIGN_CONTEXT ( 'detailed design', #314, 'design' ) ;
#46 = ORIENTED_EDGE ( 'NONE', *, *, #109, .F. ) ;
#47 = APPROVAL_ROLE ( '' ) ;
#48 = VERTEX_POINT ( 'NONE', #44 ) ;
#49 = CARTESIAN_POINT ( 'NONE',  ( 2.793185071074506684E-14, 5.061689266483735215E-33, 8.000000000000000000 ) ) ;
#50 = CONICAL_SURFACE ( 'NONE', #93, 0.6749999999999963807, 1.029744258676649649 ) ;
#51 = DIRECTION ( 'NONE',  ( 3.491481338843133355E-15, -1.224646799147353207E-16, 1.000000000000000000 ) ) ;
#52 = LINE ( 'NONE', #293, #9 ) ;
#53 = PRODUCT_DEFINITION_SHAPE ( 'NONE', 'NONE',  #161 ) ;
#54 =( LENGTH_UNIT ( ) NAMED_UNIT ( * ) SI_UNIT ( .MILLI., .METRE. ) );
#55 = APPROVAL ( #195, 'UNSPECIFIED' ) ;
#56 = VECTOR ( 'NONE', #65, 1000.000000000000114 ) ;
#57 = LINE ( 'NONE', #181, #119 ) ;
#58 = LINE ( 'NONE', #240, #332 ) ;
#59 = EDGE_CURVE ( 'NONE', #48, #219, #258, .T. ) ;
#60 = EDGE_CURVE ( 'NONE', #166, #41, #290, .T. ) ;
#61 = DIRECTION ( 'NONE',  ( -3.491481338843133355E-15, 1.224646799147353207E-16, -1.000000000000000000 ) ) ;
#62 = ORIENTED_EDGE ( 'NONE', *, *, #220, .T. ) ;
#63 = AXIS2_PLACEMENT_3D ( 'NONE', #34, #318, #28 ) ;
#64 = AXIS2_PLACEMENT_3D ( 'NONE', #300, #113, #158 ) ;
#65 = DIRECTION ( 'NONE',  ( -2.468850131082257455E-15, 0.7071067811865497932, -0.7071067811865453523 ) ) ;
#66 = AXIS2_PLACEMENT_3D ( 'NONE', #321, #266, #204 ) ;
#67 = FACE_OUTER_BOUND ( 'NONE', #246, .T. ) ;
#68 = PERSON_AND_ORGANIZATION ( #255, #236 ) ;
#69 = EDGE_LOOP ( 'NONE', ( #216, #276, #40, #280 ) ) ;
#70 = CARTESIAN_POINT ( 'NONE',  ( 2.793185071074506684E-14, -9.797174393178825657E-16, 8.000000000000000000 ) ) ;
#71 = ADVANCED_FACE ( 'NONE', ( #200 ), #289, .F. ) ;
#72 = CC_DESIGN_PERSON_AND_ORGANIZATION_ASSIGNMENT ( #120, #100, ( #263 ) ) ;
#73 = ORIENTED_EDGE ( 'NONE', *, *, #249, .F. ) ;
#74 = DATE_AND_TIME ( #247, #274 ) ;
#75 = ORIENTED_EDGE ( 'NONE', *, *, #83, .T. ) ;
#76 = APPROVAL_PERSON_ORGANIZATION ( #38, #153, #335 ) ;
#77 = CARTESIAN_POINT ( 'NONE',  ( 2.793185071074506684E-14, 0.6749999999999963807, 8.000000000000000000 ) ) ;
#78 = CARTESIAN_POINT ( 'NONE',  ( 1.416078206041818478E-15, -4.966933728324170369E-17, 0.4055809178436054485 ) ) ;
#79 = CIRCLE ( 'NONE', #188, 0.6749999999999973799 ) ;
#80 = PRODUCT_RELATED_PRODUCT_CATEGORY ( 'detail', '', ( #263 ) ) ;
#81 = DIRECTION ( 'NONE',  ( -3.491481338843133355E-15, 1.224646799147353207E-16, -1.000000000000000000 ) ) ;
#82 = DIRECTION ( 'NONE',  ( -4.275831445896958607E-31, -1.000000000000000000, -1.224646799147353207E-16 ) ) ;
#83 = EDGE_CURVE ( 'NONE', #43, #219, #205, .T. ) ;
#84 = DIRECTION ( 'NONE',  ( -3.491481338843133355E-15, 1.224646799147353207E-16, -1.000000000000000000 ) ) ;
#85 = DIRECTION ( 'NONE',  ( -3.491481338843133355E-15, 1.224646799147353207E-16, -1.000000000000000000 ) ) ;
#86 = DIRECTION ( 'NONE',  ( 0.0000000000000000000, 1.000000000000000000, 0.0000000000000000000 ) ) ;
#87 = FACE_OUTER_BOUND ( 'NONE', #16, .T. ) ;
#88 = SECURITY_CLASSIFICATION ( '', '', #225 ) ;
#89 = CARTESIAN_POINT ( 'NONE',  ( 1.047444401652940007E-13, -3.673940397442059178E-15, 30.00000000000000000 ) ) ;
#90 = CARTESIAN_POINT ( 'NONE',  ( 1.040461438975253740E-13, -3.649447461459112464E-15, 29.80000000000000071 ) ) ;
#91 = CALENDAR_DATE ( 2021, 3, 9 ) ;
#92 = AXIS2_PLACEMENT_3D ( 'NONE', #22, #99, #238 ) ;
#93 = AXIS2_PLACEMENT_3D ( 'NONE', #78, #51, #178 ) ;
#94 = DIRECTION ( 'NONE',  ( 4.275831445896958607E-31, 1.000000000000000000, 1.224646799147353207E-16 ) ) ;
#95 = PERSON_AND_ORGANIZATION ( #255, #236 ) ;
#96 = EDGE_LOOP ( 'NONE', ( #143, #302, #25 ) ) ;
#97 = EDGE_CURVE ( 'NONE', #117, #43, #330, .T. ) ;
#98 = COORDINATED_UNIVERSAL_TIME_OFFSET ( 1, 0, .AHEAD. ) ;
#99 = DIRECTION ( 'NONE',  ( -3.491481338843133355E-15, 1.224646799147353207E-16, -1.000000000000000000 ) ) ;
#100 = PERSON_AND_ORGANIZATION_ROLE ( 'design_owner' ) ;
#101 = EDGE_LOOP ( 'NONE', ( #192, #282, #75, #148 ) ) ;
#102 = DIRECTION ( 'NONE',  ( 4.275831445896958607E-31, 1.000000000000000000, 1.224646799147353207E-16 ) ) ;
#103 = CIRCLE ( 'NONE', #270, 0.4750000000000000333 ) ;
#104 = DIRECTION ( 'NONE',  ( -3.491481338843133355E-15, 1.224646799147353207E-16, -1.000000000000000000 ) ) ;
#105 = CARTESIAN_POINT ( 'NONE',  ( 0.0000000000000000000, 0.0000000000000000000, 0.0000000000000000000 ) ) ;
#106 = CARTESIAN_POINT ( 'NONE',  ( 2.886186225980433353E-31, 0.6749999999999968248, 8.266365894244594890E-17 ) ) ;
#107 = VECTOR ( 'NONE', #288, 1000.000000000000000 ) ;
#108 = AXIS2_PLACEMENT_3D ( 'NONE', #90, #61, #268 ) ;
#109 = EDGE_CURVE ( 'NONE', #219, #48, #176, .T. ) ;
#110 =( NAMED_UNIT ( * ) SI_UNIT ( $, .STERADIAN. ) SOLID_ANGLE_UNIT ( ) );
#111 = DIRECTION ( 'NONE',  ( -4.275831445896958607E-31, -1.000000000000000000, -1.224646799147353207E-16 ) ) ;
#112 = ORIENTED_EDGE ( 'NONE', *, *, #221, .T. ) ;
#113 = DIRECTION ( 'NONE',  ( -3.491481338843133355E-15, 1.224646799147353207E-16, -1.000000000000000000 ) ) ;
#114 = CALENDAR_DATE ( 2021, 3, 9 ) ;
#115 = ORIENTED_EDGE ( 'NONE', *, *, #83, .F. ) ;
#116 = DATE_TIME_ROLE ( 'creation_date' ) ;
#117 = VERTEX_POINT ( 'NONE', #322 ) ;
#118 = EDGE_CURVE ( 'NONE', #117, #48, #154, .T. ) ;
#119 = VECTOR ( 'NONE', #296, 1000.000000000000000 ) ;
#120 = PERSON_AND_ORGANIZATION ( #255, #236 ) ;
#121 = ORIENTED_EDGE ( 'NONE', *, *, #294, .F. ) ;
#122 = CARTESIAN_POINT ( 'NONE',  ( 2.793185071074506684E-14, -9.797174393178825657E-16, 8.000000000000000000 ) ) ;
#123 = DATE_AND_TIME ( #91, #12 ) ;
#124 = ORIENTED_EDGE ( 'NONE', *, *, #237, .T. ) ;
#125 = COORDINATED_UNIVERSAL_TIME_OFFSET ( 1, 0, .AHEAD. ) ;
#126 = ORIENTED_EDGE ( 'NONE', *, *, #60, .F. ) ;
#127 = FACE_OUTER_BOUND ( 'NONE', #287, .T. ) ;
#128 = CC_DESIGN_SECURITY_CLASSIFICATION ( #88, ( #141 ) ) ;
#129 = CARTESIAN_POINT ( 'NONE',  ( 8.266365894244566541E-17, -0.6749999999999968248, -8.266365894244623240E-17 ) ) ;
#130 = EDGE_CURVE ( 'NONE', #226, #336, #52, .T. ) ;
#131 = ADVANCED_FACE ( 'NONE', ( #261 ), #27, .T. ) ;
#132 = DIRECTION ( 'NONE',  ( -3.491481338843133355E-15, 1.224646799147353207E-16, -1.000000000000000000 ) ) ;
#133 = AXIS2_PLACEMENT_3D ( 'NONE', #337, #81, #291 ) ;
#134 = LINE ( 'NONE', #162, #56 ) ;
#135 = DIRECTION ( 'NONE',  ( 0.0000000000000000000, 1.000000000000000000, 0.0000000000000000000 ) ) ;
#136 = DIRECTION ( 'NONE',  ( 0.0000000000000000000, 1.000000000000000000, 0.0000000000000000000 ) ) ;
#137 = CYLINDRICAL_SURFACE ( 'NONE', #64, 0.6749999999999987121 ) ;
#138 = AXIS2_PLACEMENT_3D ( 'NONE', #156, #267, #86 ) ;
#139 = ADVANCED_FACE ( 'NONE', ( #127 ), #316, .F. ) ;
#140 = APPROVAL ( #191, 'UNSPECIFIED' ) ;
#141 = PRODUCT_DEFINITION_FORMATION_WITH_SPECIFIED_SOURCE ( 'ANY', '', #263, .NOT_KNOWN. ) ;
#142 = ORIENTED_EDGE ( 'NONE', *, *, #173, .F. ) ;
#143 = ORIENTED_EDGE ( 'NONE', *, *, #237, .F. ) ;
#144 = ORIENTED_EDGE ( 'NONE', *, *, #60, .T. ) ;
#145 = CONICAL_SURFACE ( 'NONE', #265, 0.4750000000000000333, 0.7853981633974512766 ) ;
#146 = ORIENTED_EDGE ( 'NONE', *, *, #279, .T. ) ;
#147 = SHAPE_DEFINITION_REPRESENTATION ( #53, #233 ) ;
#148 = ORIENTED_EDGE ( 'NONE', *, *, #59, .F. ) ;
#149 = DIRECTION ( 'NONE',  ( 3.491481338843133355E-15, -1.224646799147353207E-16, 1.000000000000000000 ) ) ;
#150 = DIRECTION ( 'NONE',  ( -3.491481338843133355E-15, 1.224646799147353207E-16, -1.000000000000000000 ) ) ;
#151 = DIRECTION ( 'NONE',  ( 3.491481338843133355E-15, -1.224646799147353207E-16, 1.000000000000000000 ) ) ;
#152 = LOCAL_TIME ( 9, 21, 39.00000000000000000, #308 ) ;
#153 = APPROVAL ( #278, 'UNSPECIFIED' ) ;
#154 = LINE ( 'NONE', #129, #107 ) ;
#155 = CONICAL_SURFACE ( 'NONE', #66, 0.6749999999999963807, 1.029744258676649649 ) ;
#156 = CARTESIAN_POINT ( 'NONE',  ( 1.040461438975253740E-13, -3.649447461459112464E-15, 29.80000000000000071 ) ) ;
#157 = DIRECTION ( 'NONE',  ( -3.491481338843133355E-15, 1.224646799147353207E-16, -1.000000000000000000 ) ) ;
#158 = DIRECTION ( 'NONE',  ( 4.275831445896958607E-31, 1.000000000000000000, 1.224646799147353207E-16 ) ) ;
#159 = CIRCLE ( 'NONE', #108, 0.6750000000000000444 ) ;
#160 = ORIENTED_EDGE ( 'NONE', *, *, #210, .F. ) ;
#161 = PRODUCT_DEFINITION ( 'UNKNOWN', '', #141, #45 ) ;
#162 = CARTESIAN_POINT ( 'NONE',  ( 1.047444401652940007E-13, 0.4749999999999963696, 30.00000000000000000 ) ) ;
#163 = AXIS2_PLACEMENT_3D ( 'NONE', #105, #150, #102 ) ;
#164 = ORIENTED_EDGE ( 'NONE', *, *, #97, .F. ) ;
#165 = PERSON_AND_ORGANIZATION_ROLE ( 'classification_officer' ) ;
#166 = VERTEX_POINT ( 'NONE', #203 ) ;
#167 = CARTESIAN_POINT ( 'NONE',  ( 0.0000000000000000000, 0.0000000000000000000, 0.0000000000000000000 ) ) ;
#168 = EDGE_LOOP ( 'NONE', ( #312, #35, #334, #254 ) ) ;
#169 = DIRECTION ( 'NONE',  ( -3.491481338843133355E-15, 1.224646799147353207E-16, -1.000000000000000000 ) ) ;
#170 = CC_DESIGN_APPROVAL ( #55, ( #161 ) ) ;
#171 = APPROVAL_DATE_TIME ( #74, #153 ) ;
#172 = ORIENTED_EDGE ( 'NONE', *, *, #220, .F. ) ;
#173 = EDGE_CURVE ( 'NONE', #166, #23, #103, .T. ) ;
#174 = CARTESIAN_POINT ( 'NONE',  ( 1.048026108882534942E-13, -0.4750000000000037526, 30.00000000000000000 ) ) ;
#175 = CC_DESIGN_PERSON_AND_ORGANIZATION_ASSIGNMENT ( #273, #271, ( #161 ) ) ;
#176 = CIRCLE ( 'NONE', #283, 0.6749999999999963807 ) ;
#177 = ADVANCED_FACE ( 'NONE', ( #315 ), #50, .T. ) ;
#178 = DIRECTION ( 'NONE',  ( -2.853229547240364820E-31, -1.000000000000000000, -1.606225440719274502E-16 ) ) ;
#179 = CIRCLE ( 'NONE', #15, 0.6749999999999973799 ) ;
#180 = DIRECTION ( 'NONE',  ( 4.275831445896958607E-31, 1.000000000000000000, 1.224646799147353207E-16 ) ) ;
#181 = CARTESIAN_POINT ( 'NONE',  ( 8.266365894244589960E-17, -0.6749999999999987121, -8.266365894244646659E-17 ) ) ;
#182 = LOCAL_TIME ( 9, 21, 39.00000000000000000, #98 ) ;
#183 = FACE_OUTER_BOUND ( 'NONE', #69, .T. ) ;
#184 = EDGE_LOOP ( 'NONE', ( #73, #164 ) ) ;
#185 = ADVANCED_FACE ( 'NONE', ( #8 ), #21, .T. ) ;
#186 = EDGE_CURVE ( 'NONE', #41, #331, #57, .T. ) ;
#187 = DIRECTION ( 'NONE',  ( 1.000000000000000000, 0.0000000000000000000, 0.0000000000000000000 ) ) ;
#188 = AXIS2_PLACEMENT_3D ( 'NONE', #122, #169, #284 ) ;
#189 = ORIENTED_EDGE ( 'NONE', *, *, #118, .T. ) ;
#190 = VECTOR ( 'NONE', #201, 1000.000000000000000 ) ;
#191 = APPROVAL_STATUS ( 'not_yet_approved' ) ;
#192 = ORIENTED_EDGE ( 'NONE', *, *, #118, .F. ) ;
#193 = APPLICATION_PROTOCOL_DEFINITION ( 'international standard', 'config_control_design', 1994, #314 ) ;
#194 = EDGE_CURVE ( 'NONE', #41, #226, #37, .T. ) ;
#195 = APPROVAL_STATUS ( 'not_yet_approved' ) ;
#196 = CC_DESIGN_DATE_AND_TIME_ASSIGNMENT ( #19, #116, ( #161 ) ) ;
#197 = EDGE_LOOP ( 'NONE', ( #146, #144, #121, #172 ) ) ;
#198 = FACE_OUTER_BOUND ( 'NONE', #96, .T. ) ;
#199 = AXIS2_PLACEMENT_3D ( 'NONE', #89, #85, #136 ) ;
#200 = FACE_OUTER_BOUND ( 'NONE', #18, .T. ) ;
#201 = DIRECTION ( 'NONE',  ( -3.491481338843133355E-15, 1.224646799147353207E-16, -1.000000000000000000 ) ) ;
#202 = CLOSED_SHELL ( 'NONE', ( #24, #177, #277, #292, #131 ) ) ;
#203 = CARTESIAN_POINT ( 'NONE',  ( 1.044657092223606455E-13, -0.4750000000000037526, 30.00000000000000000 ) ) ;
#204 = DIRECTION ( 'NONE',  ( -2.853229547240364820E-31, -1.000000000000000000, -1.606225440719274502E-16 ) ) ;
#205 = LINE ( 'NONE', #106, #190 ) ;
#206 = VERTEX_POINT ( 'NONE', #259 ) ;
#207 = VECTOR ( 'NONE', #257, 999.9999999999998863 ) ;
#208 = APPLICATION_PROTOCOL_DEFINITION ( 'international standard', 'config_control_design', 1994, #213 ) ;
#209 = CC_DESIGN_DATE_AND_TIME_ASSIGNMENT ( #123, #215, ( #88 ) ) ;
#210 = EDGE_CURVE ( 'NONE', #206, #48, #58, .T. ) ;
#211 = APPROVAL_DATE_TIME ( #253, #140 ) ;
#212 =( GEOMETRIC_REPRESENTATION_CONTEXT ( 3 ) GLOBAL_UNCERTAINTY_ASSIGNED_CONTEXT ( ( #297 ) ) GLOBAL_UNIT_ASSIGNED_CONTEXT ( ( #54, #10, #110 ) ) REPRESENTATION_CONTEXT ( 'NONE', 'WORKASPACE' ) );
#213 = APPLICATION_CONTEXT ( 'configuration controlled 3d designs of mechanical parts and assemblies' ) ;
#214 = CARTESIAN_POINT ( 'NONE',  ( 0.0000000000000000000, 0.0000000000000000000, 0.0000000000000000000 ) ) ;
#215 = DATE_TIME_ROLE ( 'classification_date' ) ;
#216 = ORIENTED_EDGE ( 'NONE', *, *, #186, .F. ) ;
#217 = CIRCLE ( 'NONE', #133, 0.6749999999999973799 ) ;
#218 = COORDINATED_UNIVERSAL_TIME_OFFSET ( 1, 0, .AHEAD. ) ;
#219 = VERTEX_POINT ( 'NONE', #301 ) ;
#220 = EDGE_CURVE ( 'NONE', #23, #226, #134, .T. ) ;
#221 = EDGE_CURVE ( 'NONE', #331, #336, #179, .T. ) ;
#222 = DIRECTION ( 'NONE',  ( 0.0000000000000000000, 0.0000000000000000000, 1.000000000000000000 ) ) ;
#223 = ORIENTED_EDGE ( 'NONE', *, *, #173, .T. ) ;
#224 = CARTESIAN_POINT ( 'NONE',  ( 1.498741864984264624E-15, 0.6749999999999963807, 0.4055809178436055595 ) ) ;
#225 = SECURITY_CLASSIFICATION_LEVEL ( 'unclassified' ) ;
#226 = VERTEX_POINT ( 'NONE', #230 ) ;
#227 = LINE ( 'NONE', #224, #207 ) ;
#228 = CC_DESIGN_APPROVAL ( #140, ( #141 ) ) ;
#229 = DIRECTION ( 'NONE',  ( -3.491481338843133355E-15, 1.224646799147353207E-16, -1.000000000000000000 ) ) ;
#230 = CARTESIAN_POINT ( 'NONE',  ( 1.040461438975253740E-13, 0.6749999999999963807, 29.80000000000000071 ) ) ;
#231 = CARTESIAN_POINT ( 'NONE',  ( 2.793185071074506684E-14, 5.061689266483735215E-33, 8.000000000000000000 ) ) ;
#232 = CARTESIAN_POINT ( 'NONE',  ( 1.047444401652940007E-13, 3.561929483821856396E-33, 30.00000000000000000 ) ) ;
#233 = ADVANCED_BREP_SHAPE_REPRESENTATION ( '263', ( #281, #269, #39 ), #212 ) ;
#234 = DIRECTION ( 'NONE',  ( 4.275831445896958607E-31, 1.000000000000000000, 1.224646799147353207E-16 ) ) ;
#235 = DIRECTION ( 'NONE',  ( 2.853229547240364820E-31, 1.000000000000000000, 1.606225440719274502E-16 ) ) ;
#236 = ORGANIZATION ( 'UNSPECIFIED', 'UNSPECIFIED', '' ) ;
#237 = EDGE_CURVE ( 'NONE', #206, #219, #227, .T. ) ;
#238 = DIRECTION ( 'NONE',  ( 2.853229547240364820E-31, 1.000000000000000000, 1.606225440719274502E-16 ) ) ;
#239 = FACE_OUTER_BOUND ( 'NONE', #101, .T. ) ;
#240 = CARTESIAN_POINT ( 'NONE',  ( 1.416078206041818281E-15, -0.6749999999999963807, 0.4055809178436053375 ) ) ;
#241 = CC_DESIGN_PERSON_AND_ORGANIZATION_ASSIGNMENT ( #329, #165, ( #88 ) ) ;
#242 = AXIS2_PLACEMENT_3D ( 'NONE', #232, #229, #180 ) ;
#243 = VECTOR ( 'NONE', #256, 1000.000000000000114 ) ;
#244 = AXIS2_PLACEMENT_3D ( 'NONE', #262, #157, #234 ) ;
#245 = ORIENTED_EDGE ( 'NONE', *, *, #109, .T. ) ;
#246 = EDGE_LOOP ( 'NONE', ( #20, #189, #46, #115 ) ) ;
#247 = CALENDAR_DATE ( 2021, 3, 9 ) ;
#248 = CYLINDRICAL_SURFACE ( 'NONE', #306, 0.6749999999999987121 ) ;
#249 = EDGE_CURVE ( 'NONE', #43, #117, #217, .T. ) ;
#250 = EDGE_CURVE ( 'NONE', #336, #331, #79, .T. ) ;
#251 = AXIS2_PLACEMENT_3D ( 'NONE', #49, #149, #82 ) ;
#252 = EDGE_LOOP ( 'NONE', ( #160, #124, #245 ) ) ;
#253 = DATE_AND_TIME ( #114, #182 ) ;
#254 = ORIENTED_EDGE ( 'NONE', *, *, #130, .F. ) ;
#255 = PERSON ( 'UNSPECIFIED', 'UNSPECIFIED', 'UNSPECIFIED', ('UNSPECIFIED'), ('UNSPECIFIED'), ('UNSPECIFIED') ) ;
#256 = DIRECTION ( 'NONE',  ( -2.382254525458708792E-15, -0.7071067811865495711, -0.7071067811865455743 ) ) ;
#257 = DIRECTION ( 'NONE',  ( 1.903218546456022717E-15, 0.8571673007021097801, 0.5150380749100585964 ) ) ;
#258 = CIRCLE ( 'NONE', #92, 0.6749999999999963807 ) ;
#259 = CARTESIAN_POINT ( 'NONE',  ( 0.0000000000000000000, 0.0000000000000000000, 0.0000000000000000000 ) ) ;
#260 = DIRECTION ( 'NONE',  ( -3.491481338843133355E-15, 1.224646799147353207E-16, -1.000000000000000000 ) ) ;
#261 = FACE_OUTER_BOUND ( 'NONE', #184, .T. ) ;
#262 = CARTESIAN_POINT ( 'NONE',  ( 0.0000000000000000000, 0.0000000000000000000, 0.0000000000000000000 ) ) ;
#263 = PRODUCT ( '263', '263', '', ( #17 ) ) ;
#264 = CARTESIAN_POINT ( 'NONE',  ( 1.047444401652940007E-13, -3.673940397442059178E-15, 30.00000000000000000 ) ) ;
#265 = AXIS2_PLACEMENT_3D ( 'NONE', #32, #31, #319 ) ;
#266 = DIRECTION ( 'NONE',  ( 3.491481338843133355E-15, -1.224646799147353207E-16, 1.000000000000000000 ) ) ;
#267 = DIRECTION ( 'NONE',  ( -3.491481338843133355E-15, 1.224646799147353207E-16, -1.000000000000000000 ) ) ;
#268 = DIRECTION ( 'NONE',  ( 0.0000000000000000000, 1.000000000000000000, 0.0000000000000000000 ) ) ;
#269 = MANIFOLD_SOLID_BREP ( 'Corps-Déplacer/Copier1[2]', #202 ) ;
#270 = AXIS2_PLACEMENT_3D ( 'NONE', #5, #104, #320 ) ;
#271 = PERSON_AND_ORGANIZATION_ROLE ( 'creator' ) ;
#272 = FACE_OUTER_BOUND ( 'NONE', #168, .T. ) ;
#273 = PERSON_AND_ORGANIZATION ( #255, #236 ) ;
#274 = LOCAL_TIME ( 9, 21, 39.00000000000000000, #125 ) ;
#275 = DIRECTION ( 'NONE',  ( -3.491481338843133355E-15, 1.224646799147353207E-16, -1.000000000000000000 ) ) ;
#276 = ORIENTED_EDGE ( 'NONE', *, *, #194, .T. ) ;
#277 = ADVANCED_FACE ( 'NONE', ( #198 ), #155, .T. ) ;
#278 = APPROVAL_STATUS ( 'not_yet_approved' ) ;
#279 = EDGE_CURVE ( 'NONE', #23, #166, #317, .T. ) ;
#280 = ORIENTED_EDGE ( 'NONE', *, *, #221, .F. ) ;
#281 = MANIFOLD_SOLID_BREP ( 'Corps-Déplacer/Copier1[1]', #4 ) ;
#282 = ORIENTED_EDGE ( 'NONE', *, *, #97, .T. ) ;
#283 = AXIS2_PLACEMENT_3D ( 'NONE', #30, #132, #235 ) ;
#284 = DIRECTION ( 'NONE',  ( 0.0000000000000000000, 1.000000000000000000, 0.0000000000000000000 ) ) ;
#285 = AXIS2_PLACEMENT_3D ( 'NONE', #264, #84, #135 ) ;
#286 = DATE_AND_TIME ( #303, #327 ) ;
#287 = EDGE_LOOP ( 'NONE', ( #309, #142 ) ) ;
#288 = DIRECTION ( 'NONE',  ( -3.491481338843133355E-15, 1.224646799147353207E-16, -1.000000000000000000 ) ) ;
#289 = PLANE ( 'NONE',  #11 ) ;
#290 = LINE ( 'NONE', #174, #243 ) ;
#291 = DIRECTION ( 'NONE',  ( 0.0000000000000000000, 1.000000000000000000, 0.0000000000000000000 ) ) ;
#292 = ADVANCED_FACE ( 'NONE', ( #239 ), #295, .T. ) ;
#293 = CARTESIAN_POINT ( 'NONE',  ( 2.886186225980441673E-31, 0.6749999999999987121, 8.266365894244618310E-17 ) ) ;
#294 = EDGE_CURVE ( 'NONE', #226, #41, #159, .T. ) ;
#295 = CYLINDRICAL_SURFACE ( 'NONE', #244, 0.6749999999999968248 ) ;
#296 = DIRECTION ( 'NONE',  ( -3.491481338843133355E-15, 1.224646799147353207E-16, -1.000000000000000000 ) ) ;
#297 = UNCERTAINTY_MEASURE_WITH_UNIT (LENGTH_MEASURE( 1.000000000000000082E-05 ), #54, 'distance_accuracy_value', 'NONE');
#298 = APPROVAL_PERSON_ORGANIZATION ( #1, #55, #47 ) ;
#299 = CARTESIAN_POINT ( 'NONE',  ( 6.607166096307762436E-14, -0.6749999999999982681, 8.000000000000000000 ) ) ;
#300 = CARTESIAN_POINT ( 'NONE',  ( 0.0000000000000000000, 0.0000000000000000000, 0.0000000000000000000 ) ) ;
#301 = CARTESIAN_POINT ( 'NONE',  ( 1.498741864984264624E-15, 0.6749999999999963807, 0.4055809178436055595 ) ) ;
#302 = ORIENTED_EDGE ( 'NONE', *, *, #210, .T. ) ;
#303 = CALENDAR_DATE ( 2021, 3, 9 ) ;
#304 = ADVANCED_FACE ( 'NONE', ( #183 ), #137, .T. ) ;
#305 = CARTESIAN_POINT ( 'NONE',  ( 1.047444401652940007E-13, 0.4749999999999963696, 30.00000000000000000 ) ) ;
#306 = AXIS2_PLACEMENT_3D ( 'NONE', #214, #328, #94 ) ;
#307 = CC_DESIGN_PERSON_AND_ORGANIZATION_ASSIGNMENT ( #311, #325, ( #141 ) ) ;
#308 = COORDINATED_UNIVERSAL_TIME_OFFSET ( 1, 0, .AHEAD. ) ;
#309 = ORIENTED_EDGE ( 'NONE', *, *, #279, .F. ) ;
#310 = COORDINATED_UNIVERSAL_TIME_OFFSET ( 1, 0, .AHEAD. ) ;
#311 = PERSON_AND_ORGANIZATION ( #255, #236 ) ;
#312 = ORIENTED_EDGE ( 'NONE', *, *, #294, .T. ) ;
#313 = PERSON_AND_ORGANIZATION_ROLE ( 'creator' ) ;
#314 = APPLICATION_CONTEXT ( 'configuration controlled 3d designs of mechanical parts and assemblies' ) ;
#315 = FACE_OUTER_BOUND ( 'NONE', #252, .T. ) ;
#316 = PLANE ( 'NONE',  #242 ) ;
#317 = CIRCLE ( 'NONE', #199, 0.4750000000000000333 ) ;
#318 = DIRECTION ( 'NONE',  ( -3.491481338843133355E-15, 1.224646799147353207E-16, -1.000000000000000000 ) ) ;
#319 = DIRECTION ( 'NONE',  ( 0.0000000000000000000, 1.000000000000000000, 0.0000000000000000000 ) ) ;
#320 = DIRECTION ( 'NONE',  ( 0.0000000000000000000, 1.000000000000000000, 0.0000000000000000000 ) ) ;
#321 = CARTESIAN_POINT ( 'NONE',  ( 1.416078206041818478E-15, -4.966933728324170369E-17, 0.4055809178436054485 ) ) ;
#322 = CARTESIAN_POINT ( 'NONE',  ( 1.475662811733586810E-14, -0.6749999999999982681, 8.000000000000000000 ) ) ;
#323 = ORIENTED_EDGE ( 'NONE', *, *, #194, .F. ) ;
#324 = CC_DESIGN_APPROVAL ( #153, ( #88 ) ) ;
#325 = PERSON_AND_ORGANIZATION_ROLE ( 'design_supplier' ) ;
#326 = ADVANCED_FACE ( 'NONE', ( #87 ), #145, .T. ) ;
#327 = LOCAL_TIME ( 9, 21, 39.00000000000000000, #218 ) ;
#328 = DIRECTION ( 'NONE',  ( -3.491481338843133355E-15, 1.224646799147353207E-16, -1.000000000000000000 ) ) ;
#329 = PERSON_AND_ORGANIZATION ( #255, #236 ) ;
#330 = CIRCLE ( 'NONE', #63, 0.6749999999999973799 ) ;
#331 = VERTEX_POINT ( 'NONE', #299 ) ;
#332 = VECTOR ( 'NONE', #36, 1000.000000000000000 ) ;
#333 = APPROVAL_DATE_TIME ( #286, #55 ) ;
#334 = ORIENTED_EDGE ( 'NONE', *, *, #250, .F. ) ;
#335 = APPROVAL_ROLE ( '' ) ;
#336 = VERTEX_POINT ( 'NONE', #13 ) ;
#337 = CARTESIAN_POINT ( 'NONE',  ( 2.793185071074506684E-14, -9.797174393178825657E-16, 8.000000000000000000 ) ) ;
ENDSEC;
END-ISO-10303-21;
