ISO-10303-21;
HEADER;
FILE_DESCRIPTION (( 'STEP AP203' ),
    '1' );
FILE_NAME ('26264.step',
    '2021-11-22T09:04:26',
    ( '' ),
    ( '' ),
    'SwSTEP 2.0',
    'SolidWorks 2019',
    '' );
FILE_SCHEMA (( 'CONFIG_CONTROL_DESIGN' ));
ENDSEC;

DATA;
#1 = APPROVAL_PERSON_ORGANIZATION ( #37, #96, #51 ) ;
#2 = EDGE_CURVE ( 'NONE', #81, #81, #77, .T. ) ;
#3 = ORIENTED_EDGE ( 'NONE', *, *, #2, .T. ) ;
#4 = EDGE_LOOP ( 'NONE', ( #189 ) ) ;
#5 = CC_DESIGN_PERSON_AND_ORGANIZATION_ASSIGNMENT ( #94, #133, ( #203 ) ) ;
#6 = APPROVAL_STATUS ( 'not_yet_approved' ) ;
#7 = DIRECTION ( 'NONE',  ( 4.275831445896958607E-31, 1.000000000000000000, 1.224646799147353207E-16 ) ) ;
#8 = MANIFOLD_SOLID_BREP ( 'Corps-Déplacer/Copier1[1]', #66 ) ;
#9 = APPROVAL_ROLE ( '' ) ;
#10 = DIRECTION ( 'NONE',  ( 4.275831445896958607E-31, 1.000000000000000000, 1.224646799147353207E-16 ) ) ;
#11 = DATE_TIME_ROLE ( 'classification_date' ) ;
#12 = CARTESIAN_POINT ( 'NONE',  ( 0.0000000000000000000, 0.0000000000000000000, 0.0000000000000000000 ) ) ;
#13 = ADVANCED_FACE ( 'NONE', ( #69 ), #88, .T. ) ;
#14 = AXIS2_PLACEMENT_3D ( 'NONE', #33, #65, #127 ) ;
#15 = UNCERTAINTY_MEASURE_WITH_UNIT (LENGTH_MEASURE( 1.000000000000000082E-05 ), #78, 'distance_accuracy_value', 'NONE');
#16 = ADVANCED_FACE ( 'NONE', ( #21, #139 ), #83, .T. ) ;
#17 = EDGE_LOOP ( 'NONE', ( #191 ) ) ;
#18 = EDGE_CURVE ( 'NONE', #109, #109, #35, .T. ) ;
#19 = DIRECTION ( 'NONE',  ( -3.491481338843133355E-15, 1.224646799147353207E-16, -1.000000000000000000 ) ) ;
#20 = PERSON_AND_ORGANIZATION_ROLE ( 'design_owner' ) ;
#21 = FACE_BOUND ( 'NONE', #36, .T. ) ;
#22 = CALENDAR_DATE ( 2021, 22, 11 ) ;
#23 = CARTESIAN_POINT ( 'NONE',  ( 0.0000000000000000000, 3.174999999999999822, 0.0000000000000000000 ) ) ;
#24 = APPROVAL_STATUS ( 'not_yet_approved' ) ;
#25 = CARTESIAN_POINT ( 'NONE',  ( 8.728703347107833388E-14, -3.061616997868383043E-15, 25.00000000000000000 ) ) ;
#26 = APPROVAL_ROLE ( '' ) ;
#27 = DATE_AND_TIME ( #164, #184 ) ;
#28 = DIRECTION ( 'NONE',  ( 0.0000000000000000000, 0.0000000000000000000, 1.000000000000000000 ) ) ;
#29 = CIRCLE ( 'NONE', #135, 3.174999999999999822 ) ;
#30 = AXIS2_PLACEMENT_3D ( 'NONE', #90, #41, #74 ) ;
#31 = EDGE_CURVE ( 'NONE', #186, #186, #29, .T. ) ;
#32 = AXIS2_PLACEMENT_3D ( 'NONE', #12, #165, #44 ) ;
#33 = CARTESIAN_POINT ( 'NONE',  ( 8.728703347107833388E-14, -3.061616997868383043E-15, 25.00000000000000000 ) ) ;
#34 = ORIENTED_EDGE ( 'NONE', *, *, #18, .F. ) ;
#35 = CIRCLE ( 'NONE', #14, 3.174999999999999822 ) ;
#36 = EDGE_LOOP ( 'NONE', ( #3 ) ) ;
#37 = PERSON_AND_ORGANIZATION ( #60, #144 ) ;
#38 = FACE_OUTER_BOUND ( 'NONE', #86, .T. ) ;
#39 = PERSON_AND_ORGANIZATION ( #60, #144 ) ;
#40 = CARTESIAN_POINT ( 'NONE',  ( 2.618611004132350143E-13, 1.904694923980545423E-32, 75.00000000000000000 ) ) ;
#41 = DIRECTION ( 'NONE',  ( 3.491481338843133355E-15, -1.224646799147353207E-16, 1.000000000000000000 ) ) ;
#42 = VERTEX_POINT ( 'NONE', #23 ) ;
#43 = CC_DESIGN_PERSON_AND_ORGANIZATION_ASSIGNMENT ( #132, #55, ( #203 ) ) ;
#44 = DIRECTION ( 'NONE',  ( 4.275831445896958607E-31, 1.000000000000000000, 1.224646799147353207E-16 ) ) ;
#45 = AXIS2_PLACEMENT_3D ( 'NONE', #40, #179, #10 ) ;
#46 = CIRCLE ( 'NONE', #68, 3.174999999999999822 ) ;
#47 = CARTESIAN_POINT ( 'NONE',  ( 8.728703347107833388E-14, 2.380868654975693889E-32, 25.00000000000000000 ) ) ;
#48 = DIRECTION ( 'NONE',  ( -3.491481338843133355E-15, 1.224646799147353207E-16, -1.000000000000000000 ) ) ;
#49 = ORIENTED_EDGE ( 'NONE', *, *, #169, .T. ) ;
#50 = APPROVAL ( #24, 'UNSPECIFIED' ) ;
#51 = APPROVAL_ROLE ( '' ) ;
#52 = FACE_OUTER_BOUND ( 'NONE', #87, .T. ) ;
#53 = SECURITY_CLASSIFICATION_LEVEL ( 'unclassified' ) ;
#54 = CARTESIAN_POINT ( 'NONE',  ( 0.0000000000000000000, 0.0000000000000000000, 0.0000000000000000000 ) ) ;
#55 = PERSON_AND_ORGANIZATION_ROLE ( 'creator' ) ;
#56 = CARTESIAN_POINT ( 'NONE',  ( 0.0000000000000000000, 0.0000000000000000000, 0.0000000000000000000 ) ) ;
#57 = CALENDAR_DATE ( 2021, 22, 11 ) ;
#58 = FACE_OUTER_BOUND ( 'NONE', #160, .T. ) ;
#59 = PRODUCT_DEFINITION ( 'UNKNOWN', '', #203, #84 ) ;
#60 = PERSON ( 'UNSPECIFIED', 'UNSPECIFIED', 'UNSPECIFIED', ('UNSPECIFIED'), ('UNSPECIFIED'), ('UNSPECIFIED') ) ;
#61 = CC_DESIGN_PERSON_AND_ORGANIZATION_ASSIGNMENT ( #39, #180, ( #97 ) ) ;
#62 = CC_DESIGN_APPROVAL ( #125, ( #59 ) ) ;
#63 = PRODUCT_RELATED_PRODUCT_CATEGORY ( 'detail', '', ( #123 ) ) ;
#64 = AXIS2_PLACEMENT_3D ( 'NONE', #56, #115, #7 ) ;
#65 = DIRECTION ( 'NONE',  ( -3.491481338843133355E-15, 1.224646799147353207E-16, -1.000000000000000000 ) ) ;
#66 = CLOSED_SHELL ( 'NONE', ( #193, #199, #16, #128 ) ) ;
#67 = EDGE_LOOP ( 'NONE', ( #126 ) ) ;
#68 = AXIS2_PLACEMENT_3D ( 'NONE', #25, #168, #163 ) ;
#69 = FACE_OUTER_BOUND ( 'NONE', #177, .T. ) ;
#70 = CIRCLE ( 'NONE', #182, 3.174999999999999822 ) ;
#71 = APPROVAL_DATE_TIME ( #89, #125 ) ;
#72 = PERSON_AND_ORGANIZATION_ROLE ( 'creator' ) ;
#73 = LOCAL_TIME ( 10, 4, 26.00000000000000000, #198 ) ;
#74 = DIRECTION ( 'NONE',  ( -4.275831445896958607E-31, -1.000000000000000000, -1.224646799147353207E-16 ) ) ;
#75 = CALENDAR_DATE ( 2021, 22, 11 ) ;
#76 =( NAMED_UNIT ( * ) PLANE_ANGLE_UNIT ( ) SI_UNIT ( $, .RADIAN. ) );
#77 = CIRCLE ( 'NONE', #188, 2.539999999999999591 ) ;
#78 =( LENGTH_UNIT ( ) NAMED_UNIT ( * ) SI_UNIT ( .MILLI., .METRE. ) );
#79 = MANIFOLD_SOLID_BREP ( 'Corps-Déplacer/Copier1[2]', #142 ) ;
#80 = COORDINATED_UNIVERSAL_TIME_OFFSET ( 1, 0, .AHEAD. ) ;
#81 = VERTEX_POINT ( 'NONE', #181 ) ;
#82 = LOCAL_TIME ( 10, 4, 26.00000000000000000, #196 ) ;
#83 = CONICAL_SURFACE ( 'NONE', #156, 3.174999999999999822, 0.7853981633974510546 ) ;
#84 = DESIGN_CONTEXT ( 'detailed design', #121, 'design' ) ;
#85 = ORIENTED_EDGE ( 'NONE', *, *, #169, .F. ) ;
#86 = EDGE_LOOP ( 'NONE', ( #137 ) ) ;
#87 = EDGE_LOOP ( 'NONE', ( #138 ) ) ;
#88 = PLANE ( 'NONE',  #102 ) ;
#89 = DATE_AND_TIME ( #57, #192 ) ;
#90 = CARTESIAN_POINT ( 'NONE',  ( 8.728703347107833388E-14, 2.380868654975693889E-32, 25.00000000000000000 ) ) ;
#91 = APPROVAL_STATUS ( 'not_yet_approved' ) ;
#92 = CARTESIAN_POINT ( 'NONE',  ( 8.728703347107833388E-14, 3.174999999999996714, 25.00000000000000000 ) ) ;
#93 = CC_DESIGN_DATE_AND_TIME_ASSIGNMENT ( #27, #11, ( #97 ) ) ;
#94 = PERSON_AND_ORGANIZATION ( #60, #144 ) ;
#95 = CC_DESIGN_SECURITY_CLASSIFICATION ( #97, ( #203 ) ) ;
#96 = APPROVAL ( #6, 'UNSPECIFIED' ) ;
#97 = SECURITY_CLASSIFICATION ( '', '', #53 ) ;
#98 = PLANE ( 'NONE',  #45 ) ;
#99 = EDGE_LOOP ( 'NONE', ( #113 ) ) ;
#100 = CALENDAR_DATE ( 2021, 22, 11 ) ;
#101 = DIRECTION ( 'NONE',  ( 4.275831445896958607E-31, 1.000000000000000000, 1.224646799147353207E-16 ) ) ;
#102 = AXIS2_PLACEMENT_3D ( 'NONE', #47, #194, #111 ) ;
#103 = COORDINATED_UNIVERSAL_TIME_OFFSET ( 1, 0, .AHEAD. ) ;
#104 = CYLINDRICAL_SURFACE ( 'NONE', #32, 3.174999999999999822 ) ;
#105 = PERSON_AND_ORGANIZATION ( #60, #144 ) ;
#106 =( GEOMETRIC_REPRESENTATION_CONTEXT ( 3 ) GLOBAL_UNCERTAINTY_ASSIGNED_CONTEXT ( ( #15 ) ) GLOBAL_UNIT_ASSIGNED_CONTEXT ( ( #78, #76, #170 ) ) REPRESENTATION_CONTEXT ( 'NONE', 'WORKASPACE' ) );
#107 = CARTESIAN_POINT ( 'NONE',  ( 2.596440097630696180E-13, 3.174999999999990941, 74.36499999999999488 ) ) ;
#108 = DIRECTION ( 'NONE',  ( -3.491481338843133355E-15, 1.224646799147353207E-16, -1.000000000000000000 ) ) ;
#109 = VERTEX_POINT ( 'NONE', #92 ) ;
#110 = CC_DESIGN_APPROVAL ( #50, ( #97 ) ) ;
#111 = DIRECTION ( 'NONE',  ( -4.275831445896958607E-31, -1.000000000000000000, -1.224646799147353207E-16 ) ) ;
#112 = DIRECTION ( 'NONE',  ( 0.0000000000000000000, 1.000000000000000000, 0.0000000000000000000 ) ) ;
#113 = ORIENTED_EDGE ( 'NONE', *, *, #2, .F. ) ;
#114 = CC_DESIGN_DATE_AND_TIME_ASSIGNMENT ( #131, #195, ( #59 ) ) ;
#115 = DIRECTION ( 'NONE',  ( -3.491481338843133355E-15, 1.224646799147353207E-16, -1.000000000000000000 ) ) ;
#116 = DATE_AND_TIME ( #75, #158 ) ;
#117 = CARTESIAN_POINT ( 'NONE',  ( -6.787882420361421284E-31, 2.380868654975698816E-32, -1.944126793646423041E-16 ) ) ;
#118 = MECHANICAL_CONTEXT ( 'NONE', #157, 'mechanical' ) ;
#119 = DATE_AND_TIME ( #100, #73 ) ;
#120 = CARTESIAN_POINT ( 'NONE',  ( 8.728703347107833388E-14, 3.174999999999996714, 25.00000000000000000 ) ) ;
#121 = APPLICATION_CONTEXT ( 'configuration controlled 3d designs of mechanical parts and assemblies' ) ;
#122 = CYLINDRICAL_SURFACE ( 'NONE', #64, 3.174999999999999822 ) ;
#123 = PRODUCT ( '26264', '26264', '', ( #118 ) ) ;
#124 = CC_DESIGN_APPROVAL ( #96, ( #203 ) ) ;
#125 = APPROVAL ( #91, 'UNSPECIFIED' ) ;
#126 = ORIENTED_EDGE ( 'NONE', *, *, #154, .F. ) ;
#127 = DIRECTION ( 'NONE',  ( 0.0000000000000000000, 1.000000000000000000, 0.0000000000000000000 ) ) ;
#128 = ADVANCED_FACE ( 'NONE', ( #173 ), #98, .F. ) ;
#129 = DIRECTION ( 'NONE',  ( 0.0000000000000000000, 1.000000000000000000, 0.0000000000000000000 ) ) ;
#130 = APPLICATION_PROTOCOL_DEFINITION ( 'international standard', 'config_control_design', 1994, #157 ) ;
#131 = DATE_AND_TIME ( #22, #82 ) ;
#132 = PERSON_AND_ORGANIZATION ( #60, #144 ) ;
#133 = PERSON_AND_ORGANIZATION_ROLE ( 'design_supplier' ) ;
#134 = PLANE ( 'NONE',  #30 ) ;
#135 = AXIS2_PLACEMENT_3D ( 'NONE', #190, #48, #112 ) ;
#136 = ADVANCED_BREP_SHAPE_REPRESENTATION ( '26264', ( #8, #79, #161 ), #106 ) ;
#137 = ORIENTED_EDGE ( 'NONE', *, *, #154, .T. ) ;
#138 = ORIENTED_EDGE ( 'NONE', *, *, #31, .T. ) ;
#139 = FACE_OUTER_BOUND ( 'NONE', #17, .T. ) ;
#140 = COORDINATED_UNIVERSAL_TIME_OFFSET ( 1, 0, .AHEAD. ) ;
#141 = DIRECTION ( 'NONE',  ( -3.491481338843133355E-15, 1.224646799147353207E-16, -1.000000000000000000 ) ) ;
#142 = CLOSED_SHELL ( 'NONE', ( #159, #155, #13 ) ) ;
#143 = DIRECTION ( 'NONE',  ( 4.275831445896958607E-31, 1.000000000000000000, 1.224646799147353207E-16 ) ) ;
#144 = ORGANIZATION ( 'UNSPECIFIED', 'UNSPECIFIED', '' ) ;
#145 = PERSON_AND_ORGANIZATION ( #60, #144 ) ;
#146 = FACE_OUTER_BOUND ( 'NONE', #4, .T. ) ;
#147 = VERTEX_POINT ( 'NONE', #120 ) ;
#148 = APPROVAL_DATE_TIME ( #119, #50 ) ;
#149 = CC_DESIGN_PERSON_AND_ORGANIZATION_ASSIGNMENT ( #167, #72, ( #59 ) ) ;
#150 = DIRECTION ( 'NONE',  ( 1.000000000000000000, 0.0000000000000000000, 0.0000000000000000000 ) ) ;
#151 = AXIS2_PLACEMENT_3D ( 'NONE', #117, #108, #143 ) ;
#152 = CARTESIAN_POINT ( 'NONE',  ( -1.357576484072284257E-30, 4.761737309951397631E-32, -3.888253587292846081E-16 ) ) ;
#153 = PRODUCT_DEFINITION_SHAPE ( 'NONE', 'NONE',  #59 ) ;
#154 = EDGE_CURVE ( 'NONE', #42, #42, #70, .T. ) ;
#155 = ADVANCED_FACE ( 'NONE', ( #171, #200 ), #104, .T. ) ;
#156 = AXIS2_PLACEMENT_3D ( 'NONE', #162, #141, #172 ) ;
#157 = APPLICATION_CONTEXT ( 'configuration controlled 3d designs of mechanical parts and assemblies' ) ;
#158 = LOCAL_TIME ( 10, 4, 26.00000000000000000, #80 ) ;
#159 = ADVANCED_FACE ( 'NONE', ( #38 ), #197, .T. ) ;
#160 = EDGE_LOOP ( 'NONE', ( #34 ) ) ;
#161 = AXIS2_PLACEMENT_3D ( 'NONE', #54, #28, #150 ) ;
#162 = CARTESIAN_POINT ( 'NONE',  ( 2.596440097630696180E-13, -9.107085921859292482E-15, 74.36499999999999488 ) ) ;
#163 = DIRECTION ( 'NONE',  ( 0.0000000000000000000, 1.000000000000000000, 0.0000000000000000000 ) ) ;
#164 = CALENDAR_DATE ( 2021, 22, 11 ) ;
#165 = DIRECTION ( 'NONE',  ( -3.491481338843133355E-15, 1.224646799147353207E-16, -1.000000000000000000 ) ) ;
#166 = APPROVAL_PERSON_ORGANIZATION ( #145, #50, #9 ) ;
#167 = PERSON_AND_ORGANIZATION ( #60, #144 ) ;
#168 = DIRECTION ( 'NONE',  ( -3.491481338843133355E-15, 1.224646799147353207E-16, -1.000000000000000000 ) ) ;
#169 = EDGE_CURVE ( 'NONE', #147, #147, #46, .T. ) ;
#170 =( NAMED_UNIT ( * ) SI_UNIT ( $, .STERADIAN. ) SOLID_ANGLE_UNIT ( ) );
#171 = FACE_OUTER_BOUND ( 'NONE', #178, .T. ) ;
#172 = DIRECTION ( 'NONE',  ( 0.0000000000000000000, 1.000000000000000000, 0.0000000000000000000 ) ) ;
#173 = FACE_OUTER_BOUND ( 'NONE', #99, .T. ) ;
#174 = CC_DESIGN_PERSON_AND_ORGANIZATION_ASSIGNMENT ( #202, #20, ( #123 ) ) ;
#175 = APPROVAL_PERSON_ORGANIZATION ( #105, #125, #26 ) ;
#176 = CARTESIAN_POINT ( 'NONE',  ( 2.618611004132350143E-13, -9.184850993605148733E-15, 75.00000000000000000 ) ) ;
#177 = EDGE_LOOP ( 'NONE', ( #85 ) ) ;
#178 = EDGE_LOOP ( 'NONE', ( #49 ) ) ;
#179 = DIRECTION ( 'NONE',  ( -3.491481338843133355E-15, 1.224646799147353207E-16, -1.000000000000000000 ) ) ;
#180 = PERSON_AND_ORGANIZATION_ROLE ( 'classification_officer' ) ;
#181 = CARTESIAN_POINT ( 'NONE',  ( 2.618611004132350143E-13, 2.539999999999990710, 75.00000000000000000 ) ) ;
#182 = AXIS2_PLACEMENT_3D ( 'NONE', #152, #187, #101 ) ;
#183 = SHAPE_DEFINITION_REPRESENTATION ( #153, #136 ) ;
#184 = LOCAL_TIME ( 10, 4, 26.00000000000000000, #103 ) ;
#185 = APPLICATION_PROTOCOL_DEFINITION ( 'international standard', 'config_control_design', 1994, #121 ) ;
#186 = VERTEX_POINT ( 'NONE', #107 ) ;
#187 = DIRECTION ( 'NONE',  ( -3.491481338843133355E-15, 1.224646799147353207E-16, -1.000000000000000000 ) ) ;
#188 = AXIS2_PLACEMENT_3D ( 'NONE', #176, #19, #129 ) ;
#189 = ORIENTED_EDGE ( 'NONE', *, *, #18, .T. ) ;
#190 = CARTESIAN_POINT ( 'NONE',  ( 2.596440097630696180E-13, -9.107085921859292482E-15, 74.36499999999999488 ) ) ;
#191 = ORIENTED_EDGE ( 'NONE', *, *, #31, .F. ) ;
#192 = LOCAL_TIME ( 10, 4, 26.00000000000000000, #140 ) ;
#193 = ADVANCED_FACE ( 'NONE', ( #146 ), #134, .F. ) ;
#194 = DIRECTION ( 'NONE',  ( 3.491481338843133355E-15, -1.224646799147353207E-16, 1.000000000000000000 ) ) ;
#195 = DATE_TIME_ROLE ( 'creation_date' ) ;
#196 = COORDINATED_UNIVERSAL_TIME_OFFSET ( 1, 0, .AHEAD. ) ;
#197 = PLANE ( 'NONE',  #151 ) ;
#198 = COORDINATED_UNIVERSAL_TIME_OFFSET ( 1, 0, .AHEAD. ) ;
#199 = ADVANCED_FACE ( 'NONE', ( #52, #58 ), #122, .T. ) ;
#200 = FACE_OUTER_BOUND ( 'NONE', #67, .T. ) ;
#201 = APPROVAL_DATE_TIME ( #116, #96 ) ;
#202 = PERSON_AND_ORGANIZATION ( #60, #144 ) ;
#203 = PRODUCT_DEFINITION_FORMATION_WITH_SPECIFIED_SOURCE ( 'ANY', '', #123, .NOT_KNOWN. ) ;
ENDSEC;
END-ISO-10303-21;
