ISO-10303-21;
HEADER;
FILE_DESCRIPTION (( 'STEP AP203' ),
    '1' );
FILE_NAME ('26252.step',
    '2021-11-22T09:04:25',
    ( '' ),
    ( '' ),
    'SwSTEP 2.0',
    'SolidWorks 2019',
    '' );
FILE_SCHEMA (( 'CONFIG_CONTROL_DESIGN' ));
ENDSEC;

DATA;
#1 = PLANE ( 'NONE',  #92 ) ;
#2 = DIRECTION ( 'NONE',  ( -3.491481338843133355E-15, 1.224646799147353207E-16, -1.000000000000000000 ) ) ;
#3 = AXIS2_PLACEMENT_3D ( 'NONE', #36, #172, #95 ) ;
#4 = FACE_OUTER_BOUND ( 'NONE', #65, .T. ) ;
#5 = DIRECTION ( 'NONE',  ( -4.275831445896958607E-31, -1.000000000000000000, -1.224646799147353207E-16 ) ) ;
#6 = CC_DESIGN_PERSON_AND_ORGANIZATION_ASSIGNMENT ( #120, #149, ( #58 ) ) ;
#7 = PLANE ( 'NONE',  #155 ) ;
#8 = COORDINATED_UNIVERSAL_TIME_OFFSET ( 1, 0, .AHEAD. ) ;
#9 = CIRCLE ( 'NONE', #30, 2.499999999999999556 ) ;
#10 = PRODUCT_DEFINITION ( 'UNKNOWN', '', #58, #43 ) ;
#11 = CARTESIAN_POINT ( 'NONE',  ( 6.982962677686266711E-14, 2.499999999999996891, 20.00000000000000000 ) ) ;
#12 = CARTESIAN_POINT ( 'NONE',  ( 0.0000000000000000000, 0.0000000000000000000, 0.0000000000000000000 ) ) ;
#13 = VERTEX_POINT ( 'NONE', #90 ) ;
#14 = DIRECTION ( 'NONE',  ( 1.000000000000000000, 0.0000000000000000000, 0.0000000000000000000 ) ) ;
#15 = UNCERTAINTY_MEASURE_WITH_UNIT (LENGTH_MEASURE( 1.000000000000000082E-05 ), #148, 'distance_accuracy_value', 'NONE');
#16 = APPROVAL_PERSON_ORGANIZATION ( #84, #71, #25 ) ;
#17 = FACE_OUTER_BOUND ( 'NONE', #33, .T. ) ;
#18 = PRODUCT_RELATED_PRODUCT_CATEGORY ( 'detail', '', ( #203 ) ) ;
#19 = FACE_OUTER_BOUND ( 'NONE', #97, .T. ) ;
#20 = EDGE_LOOP ( 'NONE', ( #139 ) ) ;
#21 = CARTESIAN_POINT ( 'NONE',  ( 6.982962677686266711E-14, 1.874699728327318178E-32, 20.00000000000000000 ) ) ;
#22 = CARTESIAN_POINT ( 'NONE',  ( -5.344789307371197820E-31, 1.874699728327322010E-32, -1.530808498934191571E-16 ) ) ;
#23 = DIRECTION ( 'NONE',  ( 0.0000000000000000000, 1.000000000000000000, 0.0000000000000000000 ) ) ;
#24 = CARTESIAN_POINT ( 'NONE',  ( 6.982962677686266711E-14, -2.449293598294706513E-15, 20.00000000000000000 ) ) ;
#25 = APPROVAL_ROLE ( '' ) ;
#26 = APPROVAL_STATUS ( 'not_yet_approved' ) ;
#27 = LOCAL_TIME ( 10, 4, 25.00000000000000000, #169 ) ;
#28 = AXIS2_PLACEMENT_3D ( 'NONE', #21, #76, #5 ) ;
#29 = COORDINATED_UNIVERSAL_TIME_OFFSET ( 1, 0, .AHEAD. ) ;
#30 = AXIS2_PLACEMENT_3D ( 'NONE', #24, #164, #73 ) ;
#31 = EDGE_LOOP ( 'NONE', ( #192 ) ) ;
#32 = CIRCLE ( 'NONE', #143, 2.000000000000000000 ) ;
#33 = EDGE_LOOP ( 'NONE', ( #112 ) ) ;
#34 = FACE_OUTER_BOUND ( 'NONE', #124, .T. ) ;
#35 = CARTESIAN_POINT ( 'NONE',  ( 2.601153597438134034E-13, -9.123618653647781159E-15, 74.50000000000000000 ) ) ;
#36 = CARTESIAN_POINT ( 'NONE',  ( -1.068957861474239564E-30, 3.749399456654644020E-32, -3.061616997868383141E-16 ) ) ;
#37 = CARTESIAN_POINT ( 'NONE',  ( 2.601153597438134034E-13, 2.499999999999990674, 74.50000000000000000 ) ) ;
#38 = PERSON_AND_ORGANIZATION ( #137, #109 ) ;
#39 = PERSON_AND_ORGANIZATION_ROLE ( 'classification_officer' ) ;
#40 = MECHANICAL_CONTEXT ( 'NONE', #170, 'mechanical' ) ;
#41 = SECURITY_CLASSIFICATION_LEVEL ( 'unclassified' ) ;
#42 = ADVANCED_FACE ( 'NONE', ( #45 ), #1, .T. ) ;
#43 = DESIGN_CONTEXT ( 'detailed design', #59, 'design' ) ;
#44 = DIRECTION ( 'NONE',  ( 3.491481338843133355E-15, -1.224646799147353207E-16, 1.000000000000000000 ) ) ;
#45 = FACE_OUTER_BOUND ( 'NONE', #79, .T. ) ;
#46 = ADVANCED_FACE ( 'NONE', ( #142, #154 ), #128, .T. ) ;
#47 = FACE_OUTER_BOUND ( 'NONE', #20, .T. ) ;
#48 = ORIENTED_EDGE ( 'NONE', *, *, #119, .F. ) ;
#49 = LOCAL_TIME ( 10, 4, 25.00000000000000000, #29 ) ;
#50 = DIRECTION ( 'NONE',  ( 4.275831445896958607E-31, 1.000000000000000000, 1.224646799147353207E-16 ) ) ;
#51 = CC_DESIGN_PERSON_AND_ORGANIZATION_ASSIGNMENT ( #38, #179, ( #10 ) ) ;
#52 = VERTEX_POINT ( 'NONE', #37 ) ;
#53 = DATE_TIME_ROLE ( 'classification_date' ) ;
#54 = PERSON_AND_ORGANIZATION ( #137, #109 ) ;
#55 = APPROVAL_DATE_TIME ( #167, #91 ) ;
#56 = PERSON_AND_ORGANIZATION_ROLE ( 'creator' ) ;
#57 = COORDINATED_UNIVERSAL_TIME_OFFSET ( 1, 0, .AHEAD. ) ;
#58 = PRODUCT_DEFINITION_FORMATION_WITH_SPECIFIED_SOURCE ( 'ANY', '', #203, .NOT_KNOWN. ) ;
#59 = APPLICATION_CONTEXT ( 'configuration controlled 3d designs of mechanical parts and assemblies' ) ;
#60 = DIRECTION ( 'NONE',  ( -3.491481338843133355E-15, 1.224646799147353207E-16, -1.000000000000000000 ) ) ;
#61 = ADVANCED_FACE ( 'NONE', ( #17 ), #194, .F. ) ;
#62 = DIRECTION ( 'NONE',  ( 0.0000000000000000000, 1.000000000000000000, 0.0000000000000000000 ) ) ;
#63 = CLOSED_SHELL ( 'NONE', ( #42, #151, #122 ) ) ;
#64 = CLOSED_SHELL ( 'NONE', ( #61, #46, #171, #78 ) ) ;
#65 = EDGE_LOOP ( 'NONE', ( #80 ) ) ;
#66 = DIRECTION ( 'NONE',  ( 0.0000000000000000000, 1.000000000000000000, 0.0000000000000000000 ) ) ;
#67 = DIRECTION ( 'NONE',  ( -4.275831445896958607E-31, -1.000000000000000000, -1.224646799147353207E-16 ) ) ;
#68 = DATE_TIME_ROLE ( 'creation_date' ) ;
#69 = VERTEX_POINT ( 'NONE', #168 ) ;
#70 = APPROVAL_ROLE ( '' ) ;
#71 = APPROVAL ( #134, 'UNSPECIFIED' ) ;
#72 = VERTEX_POINT ( 'NONE', #11 ) ;
#73 = DIRECTION ( 'NONE',  ( 0.0000000000000000000, 1.000000000000000000, 0.0000000000000000000 ) ) ;
#74 = CC_DESIGN_PERSON_AND_ORGANIZATION_ASSIGNMENT ( #199, #196, ( #203 ) ) ;
#75 = ADVANCED_BREP_SHAPE_REPRESENTATION ( '26252', ( #147, #77, #135 ), #100 ) ;
#76 = DIRECTION ( 'NONE',  ( 3.491481338843133355E-15, -1.224646799147353207E-16, 1.000000000000000000 ) ) ;
#77 = MANIFOLD_SOLID_BREP ( 'Corps-Déplacer/Copier1[2]', #63 ) ;
#78 = ADVANCED_FACE ( 'NONE', ( #34 ), #99, .F. ) ;
#79 = EDGE_LOOP ( 'NONE', ( #108 ) ) ;
#80 = ORIENTED_EDGE ( 'NONE', *, *, #181, .T. ) ;
#81 = CIRCLE ( 'NONE', #85, 2.499999999999999556 ) ;
#82 = EDGE_LOOP ( 'NONE', ( #110 ) ) ;
#83 = DIRECTION ( 'NONE',  ( -3.491481338843133355E-15, 1.224646799147353207E-16, -1.000000000000000000 ) ) ;
#84 = PERSON_AND_ORGANIZATION ( #137, #109 ) ;
#85 = AXIS2_PLACEMENT_3D ( 'NONE', #145, #96, #66 ) ;
#86 = DIRECTION ( 'NONE',  ( -3.491481338843133355E-15, 1.224646799147353207E-16, -1.000000000000000000 ) ) ;
#87 = DATE_AND_TIME ( #198, #49 ) ;
#88 = CARTESIAN_POINT ( 'NONE',  ( 2.618611004132350143E-13, 1.999999999999990896, 75.00000000000000000 ) ) ;
#89 = CALENDAR_DATE ( 2021, 22, 11 ) ;
#90 = CARTESIAN_POINT ( 'NONE',  ( 0.0000000000000000000, 2.500000000000000000, 0.0000000000000000000 ) ) ;
#91 = APPROVAL ( #103, 'UNSPECIFIED' ) ;
#92 = AXIS2_PLACEMENT_3D ( 'NONE', #22, #190, #176 ) ;
#93 = CC_DESIGN_PERSON_AND_ORGANIZATION_ASSIGNMENT ( #54, #56, ( #58 ) ) ;
#94 = EDGE_LOOP ( 'NONE', ( #48 ) ) ;
#95 = DIRECTION ( 'NONE',  ( 4.275831445896958607E-31, 1.000000000000000000, 1.224646799147353207E-16 ) ) ;
#96 = DIRECTION ( 'NONE',  ( -3.491481338843133355E-15, 1.224646799147353207E-16, -1.000000000000000000 ) ) ;
#97 = EDGE_LOOP ( 'NONE', ( #159 ) ) ;
#98 = CC_DESIGN_APPROVAL ( #91, ( #58 ) ) ;
#99 = PLANE ( 'NONE',  #121 ) ;
#100 =( GEOMETRIC_REPRESENTATION_CONTEXT ( 3 ) GLOBAL_UNCERTAINTY_ASSIGNED_CONTEXT ( ( #15 ) ) GLOBAL_UNIT_ASSIGNED_CONTEXT ( ( #148, #184, #150 ) ) REPRESENTATION_CONTEXT ( 'NONE', 'WORKASPACE' ) );
#101 = APPLICATION_PROTOCOL_DEFINITION ( 'international standard', 'config_control_design', 1994, #59 ) ;
#102 = PERSON_AND_ORGANIZATION ( #137, #109 ) ;
#103 = APPROVAL_STATUS ( 'not_yet_approved' ) ;
#104 = CC_DESIGN_APPROVAL ( #105, ( #173 ) ) ;
#105 = APPROVAL ( #26, 'UNSPECIFIED' ) ;
#106 = AXIS2_PLACEMENT_3D ( 'NONE', #191, #2, #62 ) ;
#107 = CC_DESIGN_APPROVAL ( #71, ( #10 ) ) ;
#108 = ORIENTED_EDGE ( 'NONE', *, *, #157, .T. ) ;
#109 = ORGANIZATION ( 'UNSPECIFIED', 'UNSPECIFIED', '' ) ;
#110 = ORIENTED_EDGE ( 'NONE', *, *, #161, .F. ) ;
#111 = FACE_BOUND ( 'NONE', #31, .T. ) ;
#112 = ORIENTED_EDGE ( 'NONE', *, *, #119, .T. ) ;
#113 = APPROVAL_PERSON_ORGANIZATION ( #118, #91, #130 ) ;
#114 = APPROVAL_DATE_TIME ( #146, #71 ) ;
#115 = DIRECTION ( 'NONE',  ( 0.0000000000000000000, 0.0000000000000000000, 1.000000000000000000 ) ) ;
#116 = DATE_AND_TIME ( #89, #27 ) ;
#117 = CALENDAR_DATE ( 2021, 22, 11 ) ;
#118 = PERSON_AND_ORGANIZATION ( #137, #109 ) ;
#119 = EDGE_CURVE ( 'NONE', #72, #72, #81, .T. ) ;
#120 = PERSON_AND_ORGANIZATION ( #137, #109 ) ;
#121 = AXIS2_PLACEMENT_3D ( 'NONE', #140, #60, #189 ) ;
#122 = ADVANCED_FACE ( 'NONE', ( #19 ), #7, .T. ) ;
#123 = ORIENTED_EDGE ( 'NONE', *, *, #197, .F. ) ;
#124 = EDGE_LOOP ( 'NONE', ( #123 ) ) ;
#125 = CONICAL_SURFACE ( 'NONE', #152, 2.499999999999999556, 0.7853981633974473908 ) ;
#126 = CARTESIAN_POINT ( 'NONE',  ( 0.0000000000000000000, 0.0000000000000000000, 0.0000000000000000000 ) ) ;
#127 = DIRECTION ( 'NONE',  ( -3.491481338843133355E-15, 1.224646799147353207E-16, -1.000000000000000000 ) ) ;
#128 = CYLINDRICAL_SURFACE ( 'NONE', #182, 2.499999999999999556 ) ;
#129 = CC_DESIGN_SECURITY_CLASSIFICATION ( #173, ( #58 ) ) ;
#130 = APPROVAL_ROLE ( '' ) ;
#131 = COORDINATED_UNIVERSAL_TIME_OFFSET ( 1, 0, .AHEAD. ) ;
#132 = LOCAL_TIME ( 10, 4, 25.00000000000000000, #8 ) ;
#133 = APPLICATION_PROTOCOL_DEFINITION ( 'international standard', 'config_control_design', 1994, #170 ) ;
#134 = APPROVAL_STATUS ( 'not_yet_approved' ) ;
#135 = AXIS2_PLACEMENT_3D ( 'NONE', #12, #115, #14 ) ;
#136 = PRODUCT_DEFINITION_SHAPE ( 'NONE', 'NONE',  #10 ) ;
#137 = PERSON ( 'UNSPECIFIED', 'UNSPECIFIED', 'UNSPECIFIED', ('UNSPECIFIED'), ('UNSPECIFIED'), ('UNSPECIFIED') ) ;
#138 = CIRCLE ( 'NONE', #3, 2.500000000000000000 ) ;
#139 = ORIENTED_EDGE ( 'NONE', *, *, #157, .F. ) ;
#140 = CARTESIAN_POINT ( 'NONE',  ( 2.618611004132350143E-13, 1.499759782661844197E-32, 75.00000000000000000 ) ) ;
#141 = CC_DESIGN_DATE_AND_TIME_ASSIGNMENT ( #87, #53, ( #173 ) ) ;
#142 = FACE_OUTER_BOUND ( 'NONE', #158, .T. ) ;
#143 = AXIS2_PLACEMENT_3D ( 'NONE', #195, #86, #23 ) ;
#144 = CARTESIAN_POINT ( 'NONE',  ( 0.0000000000000000000, 0.0000000000000000000, 0.0000000000000000000 ) ) ;
#145 = CARTESIAN_POINT ( 'NONE',  ( 6.982962677686266711E-14, -2.449293598294706513E-15, 20.00000000000000000 ) ) ;
#146 = DATE_AND_TIME ( #202, #200 ) ;
#147 = MANIFOLD_SOLID_BREP ( 'Corps-Déplacer/Copier1[1]', #64 ) ;
#148 =( LENGTH_UNIT ( ) NAMED_UNIT ( * ) SI_UNIT ( .MILLI., .METRE. ) );
#149 = PERSON_AND_ORGANIZATION_ROLE ( 'design_supplier' ) ;
#150 =( NAMED_UNIT ( * ) SI_UNIT ( $, .STERADIAN. ) SOLID_ANGLE_UNIT ( ) );
#151 = ADVANCED_FACE ( 'NONE', ( #4, #47 ), #178, .T. ) ;
#152 = AXIS2_PLACEMENT_3D ( 'NONE', #35, #183, #180 ) ;
#153 = CC_DESIGN_DATE_AND_TIME_ASSIGNMENT ( #201, #68, ( #10 ) ) ;
#154 = FACE_OUTER_BOUND ( 'NONE', #94, .T. ) ;
#155 = AXIS2_PLACEMENT_3D ( 'NONE', #160, #44, #67 ) ;
#156 = ORIENTED_EDGE ( 'NONE', *, *, #161, .T. ) ;
#157 = EDGE_CURVE ( 'NONE', #13, #13, #138, .T. ) ;
#158 = EDGE_LOOP ( 'NONE', ( #156 ) ) ;
#159 = ORIENTED_EDGE ( 'NONE', *, *, #181, .F. ) ;
#160 = CARTESIAN_POINT ( 'NONE',  ( 6.982962677686266711E-14, 1.874699728327318178E-32, 20.00000000000000000 ) ) ;
#161 = EDGE_CURVE ( 'NONE', #52, #52, #163, .T. ) ;
#162 = LOCAL_TIME ( 10, 4, 25.00000000000000000, #57 ) ;
#163 = CIRCLE ( 'NONE', #106, 2.499999999999999556 ) ;
#164 = DIRECTION ( 'NONE',  ( -3.491481338843133355E-15, 1.224646799147353207E-16, -1.000000000000000000 ) ) ;
#165 = SHAPE_DEFINITION_REPRESENTATION ( #136, #75 ) ;
#166 = VERTEX_POINT ( 'NONE', #88 ) ;
#167 = DATE_AND_TIME ( #185, #162 ) ;
#168 = CARTESIAN_POINT ( 'NONE',  ( 6.982962677686266711E-14, 2.499999999999996891, 20.00000000000000000 ) ) ;
#169 = COORDINATED_UNIVERSAL_TIME_OFFSET ( 1, 0, .AHEAD. ) ;
#170 = APPLICATION_CONTEXT ( 'configuration controlled 3d designs of mechanical parts and assemblies' ) ;
#171 = ADVANCED_FACE ( 'NONE', ( #111, #177 ), #125, .T. ) ;
#172 = DIRECTION ( 'NONE',  ( -3.491481338843133355E-15, 1.224646799147353207E-16, -1.000000000000000000 ) ) ;
#173 = SECURITY_CLASSIFICATION ( '', '', #41 ) ;
#174 = DIRECTION ( 'NONE',  ( 4.275831445896958607E-31, 1.000000000000000000, 1.224646799147353207E-16 ) ) ;
#175 = CC_DESIGN_PERSON_AND_ORGANIZATION_ASSIGNMENT ( #102, #39, ( #173 ) ) ;
#176 = DIRECTION ( 'NONE',  ( 4.275831445896958607E-31, 1.000000000000000000, 1.224646799147353207E-16 ) ) ;
#177 = FACE_OUTER_BOUND ( 'NONE', #82, .T. ) ;
#178 = CYLINDRICAL_SURFACE ( 'NONE', #187, 2.499999999999999556 ) ;
#179 = PERSON_AND_ORGANIZATION_ROLE ( 'creator' ) ;
#180 = DIRECTION ( 'NONE',  ( 0.0000000000000000000, 1.000000000000000000, 0.0000000000000000000 ) ) ;
#181 = EDGE_CURVE ( 'NONE', #69, #69, #9, .T. ) ;
#182 = AXIS2_PLACEMENT_3D ( 'NONE', #144, #83, #174 ) ;
#183 = DIRECTION ( 'NONE',  ( -3.491481338843133355E-15, 1.224646799147353207E-16, -1.000000000000000000 ) ) ;
#184 =( NAMED_UNIT ( * ) PLANE_ANGLE_UNIT ( ) SI_UNIT ( $, .RADIAN. ) );
#185 = CALENDAR_DATE ( 2021, 22, 11 ) ;
#186 = PERSON_AND_ORGANIZATION ( #137, #109 ) ;
#187 = AXIS2_PLACEMENT_3D ( 'NONE', #126, #127, #50 ) ;
#188 = APPROVAL_DATE_TIME ( #116, #105 ) ;
#189 = DIRECTION ( 'NONE',  ( 4.275831445896958607E-31, 1.000000000000000000, 1.224646799147353207E-16 ) ) ;
#190 = DIRECTION ( 'NONE',  ( -3.491481338843133355E-15, 1.224646799147353207E-16, -1.000000000000000000 ) ) ;
#191 = CARTESIAN_POINT ( 'NONE',  ( 2.601153597438134034E-13, -9.123618653647781159E-15, 74.50000000000000000 ) ) ;
#192 = ORIENTED_EDGE ( 'NONE', *, *, #197, .T. ) ;
#193 = APPROVAL_PERSON_ORGANIZATION ( #186, #105, #70 ) ;
#194 = PLANE ( 'NONE',  #28 ) ;
#195 = CARTESIAN_POINT ( 'NONE',  ( 2.618611004132350143E-13, -9.184850993605148733E-15, 75.00000000000000000 ) ) ;
#196 = PERSON_AND_ORGANIZATION_ROLE ( 'design_owner' ) ;
#197 = EDGE_CURVE ( 'NONE', #166, #166, #32, .T. ) ;
#198 = CALENDAR_DATE ( 2021, 22, 11 ) ;
#199 = PERSON_AND_ORGANIZATION ( #137, #109 ) ;
#200 = LOCAL_TIME ( 10, 4, 25.00000000000000000, #131 ) ;
#201 = DATE_AND_TIME ( #117, #132 ) ;
#202 = CALENDAR_DATE ( 2021, 22, 11 ) ;
#203 = PRODUCT ( '26252', '26252', '', ( #40 ) ) ;
ENDSEC;
END-ISO-10303-21;
