ISO-10303-21;
HEADER;
FILE_DESCRIPTION (( 'STEP AP203' ),
    '1' );
FILE_NAME ('26226.step',
    '2021-10-07T13:46:31',
    ( '' ),
    ( '' ),
    'SwSTEP 2.0',
    'SolidWorks 2019',
    '' );
FILE_SCHEMA (( 'CONFIG_CONTROL_DESIGN' ));
ENDSEC;

DATA;
#1 = APPROVAL_ROLE ( '' ) ;
#2 = CC_DESIGN_PERSON_AND_ORGANIZATION_ASSIGNMENT ( #129, #109, ( #206 ) ) ;
#3 = DATE_AND_TIME ( #164, #80 ) ;
#4 = APPROVAL_PERSON_ORGANIZATION ( #54, #53, #191 ) ;
#5 = ADVANCED_FACE ( 'NONE', ( #65, #211 ), #15, .T. ) ;
#6 = ORIENTED_EDGE ( 'NONE', *, *, #20, .F. ) ;
#7 = APPROVAL_DATE_TIME ( #3, #13 ) ;
#8 = DIRECTION ( 'NONE',  ( 5.463631047907100539E-31, 1.000000000000000000, 1.537875421965268161E-16 ) ) ;
#9 = APPLICATION_CONTEXT ( 'configuration controlled 3d designs of mechanical parts and assemblies' ) ;
#10 = PERSON_AND_ORGANIZATION ( #140, #174 ) ;
#11 = DIRECTION ( 'NONE',  ( 4.275831445896958607E-31, 1.000000000000000000, 1.224646799147353207E-16 ) ) ;
#12 = DIRECTION ( 'NONE',  ( 0.0000000000000000000, 1.000000000000000000, 0.0000000000000000000 ) ) ;
#13 = APPROVAL ( #177, 'UNSPECIFIED' ) ;
#14 = DIRECTION ( 'NONE',  ( -3.491481338843133355E-15, 1.224646799147353207E-16, -1.000000000000000000 ) ) ;
#15 = CONICAL_SURFACE ( 'NONE', #64, 0.5499999999999990452, 0.7853981633974604915 ) ;
#16 = FACE_OUTER_BOUND ( 'NONE', #205, .T. ) ;
#17 = CC_DESIGN_PERSON_AND_ORGANIZATION_ASSIGNMENT ( #38, #149, ( #89 ) ) ;
#18 = CIRCLE ( 'NONE', #99, 0.5499999999999990452 ) ;
#19 = APPROVAL_STATUS ( 'not_yet_approved' ) ;
#20 = EDGE_CURVE ( 'NONE', #50, #50, #208, .T. ) ;
#21 = DATE_AND_TIME ( #209, #186 ) ;
#22 = ADVANCED_FACE ( 'NONE', ( #180, #134 ), #182, .T. ) ;
#23 = CARTESIAN_POINT ( 'NONE',  ( 1.040461438975253866E-13, -3.649447461459112464E-15, 29.80000000000000426 ) ) ;
#24 = DIRECTION ( 'NONE',  ( -3.491481338843133355E-15, 1.224646799147353207E-16, -1.000000000000000000 ) ) ;
#25 = AXIS2_PLACEMENT_3D ( 'NONE', #199, #94, #8 ) ;
#26 = DIRECTION ( 'NONE',  ( 0.0000000000000000000, -1.000000000000000000, 0.0000000000000000000 ) ) ;
#27 = EDGE_LOOP ( 'NONE', ( #142 ) ) ;
#28 = PERSON_AND_ORGANIZATION ( #140, #174 ) ;
#29 = CARTESIAN_POINT ( 'NONE',  ( 3.910459099504309358E-14, 0.7049999999999920774, 11.19999999999999929 ) ) ;
#30 = CARTESIAN_POINT ( 'NONE',  ( 3.910459099504309358E-14, -1.371604415045035513E-15, 11.19999999999999929 ) ) ;
#31 = DIRECTION ( 'NONE',  ( -4.275831445896958607E-31, -1.000000000000000000, -1.224646799147353207E-16 ) ) ;
#32 = CALENDAR_DATE ( 2021, 7, 10 ) ;
#33 = CARTESIAN_POINT ( 'NONE',  ( 1.479015015199228035E-15, 0.7049999999999937428, 0.4236067364144310288 ) ) ;
#34 = ORIENTED_EDGE ( 'NONE', *, *, #95, .T. ) ;
#35 = ADVANCED_FACE ( 'NONE', ( #169 ), #194, .F. ) ;
#36 = APPROVAL_PERSON_ORGANIZATION ( #10, #13, #1 ) ;
#37 = ADVANCED_FACE ( 'NONE', ( #136 ), #85, .T. ) ;
#38 = PERSON_AND_ORGANIZATION ( #140, #174 ) ;
#39 = EDGE_LOOP ( 'NONE', ( #34 ) ) ;
#40 = ORIENTED_EDGE ( 'NONE', *, *, #166, .F. ) ;
#41 = CARTESIAN_POINT ( 'NONE',  ( 3.910459099504309358E-14, -1.371604415045035513E-15, 11.19999999999999929 ) ) ;
#42 = AXIS2_PLACEMENT_3D ( 'NONE', #202, #204, #49 ) ;
#43 = CALENDAR_DATE ( 2021, 7, 10 ) ;
#44 = CARTESIAN_POINT ( 'NONE',  ( 3.937672503330808790E-14, -1.381149592193560517E-15, 11.27794228634060580 ) ) ;
#45 = CARTESIAN_POINT ( 'NONE',  ( 0.0000000000000000000, 0.0000000000000000000, 0.0000000000000000000 ) ) ;
#46 = APPLICATION_CONTEXT ( 'configuration controlled 3d designs of mechanical parts and assemblies' ) ;
#47 = FACE_OUTER_BOUND ( 'NONE', #27, .T. ) ;
#48 = APPLICATION_PROTOCOL_DEFINITION ( 'international standard', 'config_control_design', 1994, #9 ) ;
#49 = DIRECTION ( 'NONE',  ( 0.0000000000000000000, 1.000000000000000000, 0.0000000000000000000 ) ) ;
#50 = VERTEX_POINT ( 'NONE', #124 ) ;
#51 = DIRECTION ( 'NONE',  ( 1.000000000000000000, 0.0000000000000000000, 0.0000000000000000000 ) ) ;
#52 = ORIENTED_EDGE ( 'NONE', *, *, #170, .T. ) ;
#53 = APPROVAL ( #19, 'UNSPECIFIED' ) ;
#54 = PERSON_AND_ORGANIZATION ( #140, #174 ) ;
#55 = CLOSED_SHELL ( 'NONE', ( #123, #22, #111, #5, #35 ) ) ;
#56 = CC_DESIGN_PERSON_AND_ORGANIZATION_ASSIGNMENT ( #77, #75, ( #89 ) ) ;
#57 = PERSON_AND_ORGANIZATION ( #140, #174 ) ;
#58 = CARTESIAN_POINT ( 'NONE',  ( 1.047444401652940007E-13, 4.124339402320045473E-33, 30.00000000000000000 ) ) ;
#59 = CC_DESIGN_APPROVAL ( #53, ( #76 ) ) ;
#60 = DIRECTION ( 'NONE',  ( 3.491481338843133355E-15, -1.224646799147353207E-16, 1.000000000000000000 ) ) ;
#61 = PERSON_AND_ORGANIZATION_ROLE ( 'classification_officer' ) ;
#62 = DATE_AND_TIME ( #43, #135 ) ;
#63 = CARTESIAN_POINT ( 'NONE',  ( 0.0000000000000000000, 0.0000000000000000000, 0.0000000000000000000 ) ) ;
#64 = AXIS2_PLACEMENT_3D ( 'NONE', #113, #24, #178 ) ;
#65 = FACE_OUTER_BOUND ( 'NONE', #154, .T. ) ;
#66 = DESIGN_CONTEXT ( 'detailed design', #46, 'design' ) ;
#67 = DIRECTION ( 'NONE',  ( -4.275831445896958607E-31, -1.000000000000000000, -1.224646799147353207E-16 ) ) ;
#68 = AXIS2_PLACEMENT_3D ( 'NONE', #141, #218, #67 ) ;
#69 = PLANE ( 'NONE',  #68 ) ;
#70 = SHAPE_DEFINITION_REPRESENTATION ( #106, #213 ) ;
#71 = CC_DESIGN_DATE_AND_TIME_ASSIGNMENT ( #62, #146, ( #159 ) ) ;
#72 = CIRCLE ( 'NONE', #144, 0.7049999999999935207 ) ;
#73 = MANIFOLD_SOLID_BREP ( 'Corps-Déplacer/Copier1[2]', #74 ) ;
#74 = CLOSED_SHELL ( 'NONE', ( #37, #217, #161 ) ) ;
#75 = PERSON_AND_ORGANIZATION_ROLE ( 'creator' ) ;
#76 = PRODUCT_DEFINITION ( 'UNKNOWN', '', #89, #66 ) ;
#77 = PERSON_AND_ORGANIZATION ( #140, #174 ) ;
#78 = CC_DESIGN_PERSON_AND_ORGANIZATION_ASSIGNMENT ( #28, #110, ( #76 ) ) ;
#79 = APPROVAL_DATE_TIME ( #151, #53 ) ;
#80 = LOCAL_TIME ( 15, 46, 31.00000000000000000, #92 ) ;
#81 = COORDINATED_UNIVERSAL_TIME_OFFSET ( 1, 0, .AHEAD. ) ;
#82 = EDGE_LOOP ( 'NONE', ( #133 ) ) ;
#83 = VERTEX_POINT ( 'NONE', #119 ) ;
#84 = VERTEX_POINT ( 'NONE', #121 ) ;
#85 = CONICAL_SURFACE ( 'NONE', #126, 0.7049999999999937428, 1.029744258676649649 ) ;
#86 = DIRECTION ( 'NONE',  ( -3.491481338843133355E-15, 1.224646799147353207E-16, -1.000000000000000000 ) ) ;
#87 = CC_DESIGN_PERSON_AND_ORGANIZATION_ASSIGNMENT ( #181, #61, ( #159 ) ) ;
#88 = DATE_TIME_ROLE ( 'creation_date' ) ;
#89 = PRODUCT_DEFINITION_FORMATION_WITH_SPECIFIED_SOURCE ( 'ANY', '', #206, .NOT_KNOWN. ) ;
#90 = LOCAL_TIME ( 15, 46, 31.00000000000000000, #81 ) ;
#91 = COORDINATED_UNIVERSAL_TIME_OFFSET ( 1, 0, .AHEAD. ) ;
#92 = COORDINATED_UNIVERSAL_TIME_OFFSET ( 1, 0, .AHEAD. ) ;
#93 = AXIS2_PLACEMENT_3D ( 'NONE', #172, #125, #51 ) ;
#94 = DIRECTION ( 'NONE',  ( -3.491481338843133355E-15, 1.224646799147353207E-16, -1.000000000000000000 ) ) ;
#95 = EDGE_CURVE ( 'NONE', #189, #189, #128, .T. ) ;
#96 = DIRECTION ( 'NONE',  ( -3.491481338843133355E-15, 1.224646799147353207E-16, -1.000000000000000000 ) ) ;
#97 = DIRECTION ( 'NONE',  ( -3.491481338843133355E-15, 1.224646799147353207E-16, -1.000000000000000000 ) ) ;
#98 = CARTESIAN_POINT ( 'NONE',  ( 3.910459099504309358E-14, 0.7049999999999920774, 11.19999999999999929 ) ) ;
#99 = AXIS2_PLACEMENT_3D ( 'NONE', #220, #171, #221 ) ;
#100 = APPROVAL ( #130, 'UNSPECIFIED' ) ;
#101 = DIRECTION ( 'NONE',  ( 0.0000000000000000000, 1.000000000000000000, 0.0000000000000000000 ) ) ;
#102 = DATE_AND_TIME ( #32, #90 ) ;
#103 = AXIS2_PLACEMENT_3D ( 'NONE', #23, #97, #116 ) ;
#104 = CC_DESIGN_DATE_AND_TIME_ASSIGNMENT ( #21, #88, ( #76 ) ) ;
#105 = APPLICATION_PROTOCOL_DEFINITION ( 'international standard', 'config_control_design', 1994, #46 ) ;
#106 = PRODUCT_DEFINITION_SHAPE ( 'NONE', 'NONE',  #76 ) ;
#107 = CIRCLE ( 'NONE', #42, 0.7499999999999977796 ) ;
#108 = COORDINATED_UNIVERSAL_TIME_OFFSET ( 1, 0, .AHEAD. ) ;
#109 = PERSON_AND_ORGANIZATION_ROLE ( 'design_owner' ) ;
#110 = PERSON_AND_ORGANIZATION_ROLE ( 'creator' ) ;
#111 = ADVANCED_FACE ( 'NONE', ( #197, #193 ), #150, .T. ) ;
#112 = APPROVAL_ROLE ( '' ) ;
#113 = CARTESIAN_POINT ( 'NONE',  ( 1.047444401652940007E-13, -3.673940397442059178E-15, 30.00000000000000000 ) ) ;
#114 = CARTESIAN_POINT ( 'NONE',  ( 1.479015015199227641E-15, -5.187686338471893977E-17, 0.4236067364144309177 ) ) ;
#115 = ORIENTED_EDGE ( 'NONE', *, *, #166, .T. ) ;
#116 = DIRECTION ( 'NONE',  ( 0.0000000000000000000, 1.000000000000000000, 0.0000000000000000000 ) ) ;
#117 = MECHANICAL_CONTEXT ( 'NONE', #9, 'mechanical' ) ;
#118 = EDGE_LOOP ( 'NONE', ( #40 ) ) ;
#119 = CARTESIAN_POINT ( 'NONE',  ( 1.047444401652940007E-13, 0.5499999999999953815, 30.00000000000000000 ) ) ;
#120 = EDGE_CURVE ( 'NONE', #185, #185, #219, .T. ) ;
#121 = CARTESIAN_POINT ( 'NONE',  ( 3.937672503330808790E-14, 0.7499999999999963363, 11.27794228634060580 ) ) ;
#122 = DIRECTION ( 'NONE',  ( -3.491481338843133355E-15, 1.224646799147353207E-16, -1.000000000000000000 ) ) ;
#123 = ADVANCED_FACE ( 'NONE', ( #200 ), #160, .F. ) ;
#124 = CARTESIAN_POINT ( 'NONE',  ( 1.040461438975253866E-13, 0.7499999999999955591, 29.80000000000000426 ) ) ;
#125 = DIRECTION ( 'NONE',  ( 0.0000000000000000000, 0.0000000000000000000, 1.000000000000000000 ) ) ;
#126 = AXIS2_PLACEMENT_3D ( 'NONE', #114, #156, #168 ) ;
#127 = ORIENTED_EDGE ( 'NONE', *, *, #120, .F. ) ;
#128 = CIRCLE ( 'NONE', #25, 0.7049999999999937428 ) ;
#129 = PERSON_AND_ORGANIZATION ( #140, #174 ) ;
#130 = APPROVAL_STATUS ( 'not_yet_approved' ) ;
#131 = AXIS2_PLACEMENT_3D ( 'NONE', #41, #14, #101 ) ;
#132 = ORIENTED_EDGE ( 'NONE', *, *, #157, .T. ) ;
#133 = ORIENTED_EDGE ( 'NONE', *, *, #20, .T. ) ;
#134 = FACE_OUTER_BOUND ( 'NONE', #147, .T. ) ;
#135 = LOCAL_TIME ( 15, 46, 31.00000000000000000, #163 ) ;
#136 = FACE_OUTER_BOUND ( 'NONE', #39, .T. ) ;
#137 = CALENDAR_DATE ( 2021, 7, 10 ) ;
#138 = FACE_OUTER_BOUND ( 'NONE', #148, .T. ) ;
#139 = LOCAL_TIME ( 15, 46, 31.00000000000000000, #108 ) ;
#140 = PERSON ( 'UNSPECIFIED', 'UNSPECIFIED', 'UNSPECIFIED', ('UNSPECIFIED'), ('UNSPECIFIED'), ('UNSPECIFIED') ) ;
#141 = CARTESIAN_POINT ( 'NONE',  ( 3.910459099504309358E-14, 5.286653233882979234E-33, 11.19999999999999929 ) ) ;
#142 = ORIENTED_EDGE ( 'NONE', *, *, #95, .F. ) ;
#143 = EDGE_LOOP ( 'NONE', ( #132 ) ) ;
#144 = AXIS2_PLACEMENT_3D ( 'NONE', #30, #122, #12 ) ;
#145 = AXIS2_PLACEMENT_3D ( 'NONE', #63, #195, #214 ) ;
#146 = DATE_TIME_ROLE ( 'classification_date' ) ;
#147 = EDGE_LOOP ( 'NONE', ( #115 ) ) ;
#148 = EDGE_LOOP ( 'NONE', ( #152 ) ) ;
#149 = PERSON_AND_ORGANIZATION_ROLE ( 'design_supplier' ) ;
#150 = CYLINDRICAL_SURFACE ( 'NONE', #145, 0.7499999999999984457 ) ;
#151 = DATE_AND_TIME ( #137, #139 ) ;
#152 = ORIENTED_EDGE ( 'NONE', *, *, #120, .T. ) ;
#153 =( NAMED_UNIT ( * ) PLANE_ANGLE_UNIT ( ) SI_UNIT ( $, .RADIAN. ) );
#154 = EDGE_LOOP ( 'NONE', ( #6 ) ) ;
#155 =( GEOMETRIC_REPRESENTATION_CONTEXT ( 3 ) GLOBAL_UNCERTAINTY_ASSIGNED_CONTEXT ( ( #207 ) ) GLOBAL_UNIT_ASSIGNED_CONTEXT ( ( #198, #153, #183 ) ) REPRESENTATION_CONTEXT ( 'NONE', 'WORKASPACE' ) );
#156 = DIRECTION ( 'NONE',  ( 3.491481338843133355E-15, -1.224646799147353207E-16, 1.000000000000000000 ) ) ;
#157 = EDGE_CURVE ( 'NONE', #83, #83, #18, .T. ) ;
#158 = DIRECTION ( 'NONE',  ( 3.491481338843133355E-15, -1.224646799147353207E-16, 1.000000000000000000 ) ) ;
#159 = SECURITY_CLASSIFICATION ( '', '', #212 ) ;
#160 = PLANE ( 'NONE',  #192 ) ;
#161 = ADVANCED_FACE ( 'NONE', ( #16 ), #69, .T. ) ;
#162 = CC_DESIGN_SECURITY_CLASSIFICATION ( #159, ( #89 ) ) ;
#163 = COORDINATED_UNIVERSAL_TIME_OFFSET ( 1, 0, .AHEAD. ) ;
#164 = CALENDAR_DATE ( 2021, 7, 10 ) ;
#165 = CC_DESIGN_APPROVAL ( #13, ( #89 ) ) ;
#166 = EDGE_CURVE ( 'NONE', #84, #84, #107, .T. ) ;
#167 = EDGE_LOOP ( 'NONE', ( #176 ) ) ;
#168 = DIRECTION ( 'NONE',  ( -5.463631047907100539E-31, -1.000000000000000000, -1.537875421965268161E-16 ) ) ;
#169 = FACE_OUTER_BOUND ( 'NONE', #167, .T. ) ;
#170 = EDGE_CURVE ( 'NONE', #187, #187, #72, .T. ) ;
#171 = DIRECTION ( 'NONE',  ( -3.491481338843133355E-15, 1.224646799147353207E-16, -1.000000000000000000 ) ) ;
#172 = CARTESIAN_POINT ( 'NONE',  ( 0.0000000000000000000, 0.0000000000000000000, 0.0000000000000000000 ) ) ;
#173 = DIRECTION ( 'NONE',  ( 4.275831445896958607E-31, 1.000000000000000000, 1.224646799147353207E-16 ) ) ;
#174 = ORGANIZATION ( 'UNSPECIFIED', 'UNSPECIFIED', '' ) ;
#175 = CARTESIAN_POINT ( 'NONE',  ( 3.910459099504309358E-14, 5.286653233882979234E-33, 11.19999999999999929 ) ) ;
#176 = ORIENTED_EDGE ( 'NONE', *, *, #157, .F. ) ;
#177 = APPROVAL_STATUS ( 'not_yet_approved' ) ;
#178 = DIRECTION ( 'NONE',  ( 0.0000000000000000000, 1.000000000000000000, 0.0000000000000000000 ) ) ;
#179 = EDGE_LOOP ( 'NONE', ( #190 ) ) ;
#180 = FACE_BOUND ( 'NONE', #179, .T. ) ;
#181 = PERSON_AND_ORGANIZATION ( #140, #174 ) ;
#182 = CONICAL_SURFACE ( 'NONE', #196, 0.7499999999999977796, 0.5235987755982993708 ) ;
#183 =( NAMED_UNIT ( * ) SI_UNIT ( $, .STERADIAN. ) SOLID_ANGLE_UNIT ( ) );
#184 = EDGE_LOOP ( 'NONE', ( #52 ) ) ;
#185 = VERTEX_POINT ( 'NONE', #98 ) ;
#186 = LOCAL_TIME ( 15, 46, 31.00000000000000000, #91 ) ;
#187 = VERTEX_POINT ( 'NONE', #29 ) ;
#188 = CYLINDRICAL_SURFACE ( 'NONE', #223, 0.7049999999999936318 ) ;
#189 = VERTEX_POINT ( 'NONE', #33 ) ;
#190 = ORIENTED_EDGE ( 'NONE', *, *, #170, .F. ) ;
#191 = APPROVAL_ROLE ( '' ) ;
#192 = AXIS2_PLACEMENT_3D ( 'NONE', #175, #158, #31 ) ;
#193 = FACE_OUTER_BOUND ( 'NONE', #82, .T. ) ;
#194 = PLANE ( 'NONE',  #201 ) ;
#195 = DIRECTION ( 'NONE',  ( -3.491481338843133355E-15, 1.224646799147353207E-16, -1.000000000000000000 ) ) ;
#196 = AXIS2_PLACEMENT_3D ( 'NONE', #44, #60, #26 ) ;
#197 = FACE_OUTER_BOUND ( 'NONE', #118, .T. ) ;
#198 =( LENGTH_UNIT ( ) NAMED_UNIT ( * ) SI_UNIT ( .MILLI., .METRE. ) );
#199 = CARTESIAN_POINT ( 'NONE',  ( 1.479015015199227641E-15, -5.187686338471893977E-17, 0.4236067364144309177 ) ) ;
#200 = FACE_OUTER_BOUND ( 'NONE', #184, .T. ) ;
#201 = AXIS2_PLACEMENT_3D ( 'NONE', #58, #96, #11 ) ;
#202 = CARTESIAN_POINT ( 'NONE',  ( 3.937672503330808790E-14, -1.381149592193560517E-15, 11.27794228634060580 ) ) ;
#203 = APPROVAL_DATE_TIME ( #102, #100 ) ;
#204 = DIRECTION ( 'NONE',  ( -3.491481338843133355E-15, 1.224646799147353207E-16, -1.000000000000000000 ) ) ;
#205 = EDGE_LOOP ( 'NONE', ( #127 ) ) ;
#206 = PRODUCT ( '26226', '26226', '', ( #117 ) ) ;
#207 = UNCERTAINTY_MEASURE_WITH_UNIT (LENGTH_MEASURE( 1.000000000000000082E-05 ), #198, 'distance_accuracy_value', 'NONE');
#208 = CIRCLE ( 'NONE', #103, 0.7499999999999992228 ) ;
#209 = CALENDAR_DATE ( 2021, 7, 10 ) ;
#210 = CC_DESIGN_APPROVAL ( #100, ( #159 ) ) ;
#211 = FACE_BOUND ( 'NONE', #143, .T. ) ;
#212 = SECURITY_CLASSIFICATION_LEVEL ( 'unclassified' ) ;
#213 = ADVANCED_BREP_SHAPE_REPRESENTATION ( '26226', ( #216, #73, #93 ), #155 ) ;
#214 = DIRECTION ( 'NONE',  ( 4.275831445896958607E-31, 1.000000000000000000, 1.224646799147353454E-16 ) ) ;
#215 = APPROVAL_PERSON_ORGANIZATION ( #57, #100, #112 ) ;
#216 = MANIFOLD_SOLID_BREP ( 'Corps-Déplacer/Copier1[1]', #55 ) ;
#217 = ADVANCED_FACE ( 'NONE', ( #47, #138 ), #188, .T. ) ;
#218 = DIRECTION ( 'NONE',  ( 3.491481338843133355E-15, -1.224646799147353207E-16, 1.000000000000000000 ) ) ;
#219 = CIRCLE ( 'NONE', #131, 0.7049999999999935207 ) ;
#220 = CARTESIAN_POINT ( 'NONE',  ( 1.047444401652940007E-13, -3.673940397442059178E-15, 30.00000000000000000 ) ) ;
#221 = DIRECTION ( 'NONE',  ( 0.0000000000000000000, 1.000000000000000000, 0.0000000000000000000 ) ) ;
#222 = PRODUCT_RELATED_PRODUCT_CATEGORY ( 'detail', '', ( #206 ) ) ;
#223 = AXIS2_PLACEMENT_3D ( 'NONE', #45, #86, #173 ) ;
ENDSEC;
END-ISO-10303-21;
