ISO-10303-21;
HEADER;
FILE_DESCRIPTION (( 'STEP AP203' ),
    '1' );
FILE_NAME ('26225.step',
    '2021-10-07T13:46:31',
    ( '' ),
    ( '' ),
    'SwSTEP 2.0',
    'SolidWorks 2019',
    '' );
FILE_SCHEMA (( 'CONFIG_CONTROL_DESIGN' ));
ENDSEC;

DATA;
#1 = CARTESIAN_POINT ( 'NONE',  ( 3.491481338843133986E-14, -1.224646799147353454E-15, 10.00000000000000178 ) ) ;
#2 = PRODUCT_RELATED_PRODUCT_CATEGORY ( 'detail', '', ( #211 ) ) ;
#3 = CARTESIAN_POINT ( 'NONE',  ( 3.491481338843133986E-14, -2.079055818835246452E-31, 10.00000000000000178 ) ) ;
#4 = DIRECTION ( 'NONE',  ( 3.491481338843133355E-15, -1.224646799147353207E-16, 1.000000000000000000 ) ) ;
#5 = DIRECTION ( 'NONE',  ( 3.491481338843133355E-15, -1.224646799147353207E-16, 1.000000000000000000 ) ) ;
#6 = EDGE_LOOP ( 'NONE', ( #159 ) ) ;
#7 = ADVANCED_FACE ( 'NONE', ( #16, #108 ), #19, .T. ) ;
#8 = COORDINATED_UNIVERSAL_TIME_OFFSET ( 1, 0, .AHEAD. ) ;
#9 =( LENGTH_UNIT ( ) NAMED_UNIT ( * ) SI_UNIT ( .MILLI., .METRE. ) );
#10 = CALENDAR_DATE ( 2021, 7, 10 ) ;
#11 = PERSON_AND_ORGANIZATION ( #218, #140 ) ;
#12 = FACE_OUTER_BOUND ( 'NONE', #78, .T. ) ;
#13 = APPROVAL_STATUS ( 'not_yet_approved' ) ;
#14 = APPLICATION_CONTEXT ( 'configuration controlled 3d designs of mechanical parts and assemblies' ) ;
#15 = CIRCLE ( 'NONE', #102, 0.6050000000000008704 ) ;
#16 = FACE_OUTER_BOUND ( 'NONE', #136, .T. ) ;
#17 = DIRECTION ( 'NONE',  ( 0.0000000000000000000, 1.000000000000000000, 0.0000000000000000000 ) ) ;
#18 = PLANE ( 'NONE',  #65 ) ;
#19 = CONICAL_SURFACE ( 'NONE', #25, 0.5499999999999990452, 0.7853981633974604915 ) ;
#20 = ORIENTED_EDGE ( 'NONE', *, *, #61, .T. ) ;
#21 = ORIENTED_EDGE ( 'NONE', *, *, #38, .T. ) ;
#22 = EDGE_CURVE ( 'NONE', #119, #119, #74, .T. ) ;
#23 = ADVANCED_FACE ( 'NONE', ( #92 ), #161, .T. ) ;
#24 = APPROVAL_DATE_TIME ( #216, #209 ) ;
#25 = AXIS2_PLACEMENT_3D ( 'NONE', #179, #214, #142 ) ;
#26 = ORIENTED_EDGE ( 'NONE', *, *, #22, .T. ) ;
#27 = DATE_AND_TIME ( #202, #107 ) ;
#28 = DIRECTION ( 'NONE',  ( -3.491481338843133355E-15, 1.224646799147353207E-16, -1.000000000000000000 ) ) ;
#29 = CC_DESIGN_APPROVAL ( #215, ( #221 ) ) ;
#30 = PERSON_AND_ORGANIZATION_ROLE ( 'classification_officer' ) ;
#31 = CC_DESIGN_PERSON_AND_ORGANIZATION_ASSIGNMENT ( #185, #30, ( #36 ) ) ;
#32 = SHAPE_DEFINITION_REPRESENTATION ( #47, #149 ) ;
#33 = VERTEX_POINT ( 'NONE', #141 ) ;
#34 = APPROVAL_PERSON_ORGANIZATION ( #220, #215, #50 ) ;
#35 = AXIS2_PLACEMENT_3D ( 'NONE', #87, #193, #109 ) ;
#36 = SECURITY_CLASSIFICATION ( '', '', #63 ) ;
#37 = DIRECTION ( 'NONE',  ( -3.491481338843133355E-15, 1.224646799147353207E-16, -1.000000000000000000 ) ) ;
#38 = EDGE_CURVE ( 'NONE', #33, #33, #176, .T. ) ;
#39 = DIRECTION ( 'NONE',  ( 0.0000000000000000000, 1.000000000000000000, 0.0000000000000000000 ) ) ;
#40 = ORIENTED_EDGE ( 'NONE', *, *, #43, .T. ) ;
#41 = EDGE_LOOP ( 'NONE', ( #105 ) ) ;
#42 = FACE_OUTER_BOUND ( 'NONE', #172, .T. ) ;
#43 = EDGE_CURVE ( 'NONE', #130, #130, #164, .T. ) ;
#44 = AXIS2_PLACEMENT_3D ( 'NONE', #124, #174, #71 ) ;
#45 = LOCAL_TIME ( 15, 46, 31.00000000000000000, #168 ) ;
#46 = PERSON_AND_ORGANIZATION ( #218, #140 ) ;
#47 = PRODUCT_DEFINITION_SHAPE ( 'NONE', 'NONE',  #137 ) ;
#48 = APPROVAL_PERSON_ORGANIZATION ( #11, #104, #117 ) ;
#49 = COORDINATED_UNIVERSAL_TIME_OFFSET ( 1, 0, .AHEAD. ) ;
#50 = APPROVAL_ROLE ( '' ) ;
#51 = CC_DESIGN_PERSON_AND_ORGANIZATION_ASSIGNMENT ( #46, #160, ( #211 ) ) ;
#52 = AXIS2_PLACEMENT_3D ( 'NONE', #128, #196, #143 ) ;
#53 = EDGE_LOOP ( 'NONE', ( #207 ) ) ;
#54 = AXIS2_PLACEMENT_3D ( 'NONE', #192, #89, #17 ) ;
#55 = ORIENTED_EDGE ( 'NONE', *, *, #43, .F. ) ;
#56 = PLANE ( 'NONE',  #122 ) ;
#57 = DIRECTION ( 'NONE',  ( -4.275831445896958607E-31, -1.000000000000000000, -1.224646799147353207E-16 ) ) ;
#58 = AXIS2_PLACEMENT_3D ( 'NONE', #1, #37, #39 ) ;
#59 = CARTESIAN_POINT ( 'NONE',  ( 3.579168973395178456E-14, 0.7499999999999954481, 10.25114736709748442 ) ) ;
#60 = CARTESIAN_POINT ( 'NONE',  ( 3.491481338843133986E-14, -1.224646799147353454E-15, 10.00000000000000178 ) ) ;
#61 = EDGE_CURVE ( 'NONE', #182, #182, #15, .T. ) ;
#62 = APPROVAL_DATE_TIME ( #152, #215 ) ;
#63 = SECURITY_CLASSIFICATION_LEVEL ( 'unclassified' ) ;
#64 = FACE_OUTER_BOUND ( 'NONE', #53, .T. ) ;
#65 = AXIS2_PLACEMENT_3D ( 'NONE', #195, #5, #144 ) ;
#66 = CARTESIAN_POINT ( 'NONE',  ( 0.0000000000000000000, 0.0000000000000000000, 0.0000000000000000000 ) ) ;
#67 = FACE_OUTER_BOUND ( 'NONE', #41, .T. ) ;
#68 = ORIENTED_EDGE ( 'NONE', *, *, #190, .T. ) ;
#69 = AXIS2_PLACEMENT_3D ( 'NONE', #153, #83, #167 ) ;
#70 = ADVANCED_FACE ( 'NONE', ( #157 ), #18, .T. ) ;
#71 = DIRECTION ( 'NONE',  ( 0.0000000000000000000, -1.000000000000000000, 0.0000000000000000000 ) ) ;
#72 = DIRECTION ( 'NONE',  ( -3.491481338843133355E-15, 1.224646799147353207E-16, -1.000000000000000000 ) ) ;
#73 = EDGE_LOOP ( 'NONE', ( #68 ) ) ;
#74 = CIRCLE ( 'NONE', #35, 0.6049999999999985389 ) ;
#75 = CALENDAR_DATE ( 2021, 7, 10 ) ;
#76 = CARTESIAN_POINT ( 'NONE',  ( 0.0000000000000000000, 0.0000000000000000000, 0.0000000000000000000 ) ) ;
#77 = APPLICATION_PROTOCOL_DEFINITION ( 'international standard', 'config_control_design', 1994, #217 ) ;
#78 = EDGE_LOOP ( 'NONE', ( #21 ) ) ;
#79 = CARTESIAN_POINT ( 'NONE',  ( 0.0000000000000000000, 0.0000000000000000000, 0.0000000000000000000 ) ) ;
#80 = CALENDAR_DATE ( 2021, 7, 10 ) ;
#81 = DATE_AND_TIME ( #10, #165 ) ;
#82 = EDGE_CURVE ( 'NONE', #212, #212, #93, .T. ) ;
#83 = DIRECTION ( 'NONE',  ( -3.491481338843133355E-15, 1.224646799147353207E-16, -1.000000000000000000 ) ) ;
#84 = AXIS2_PLACEMENT_3D ( 'NONE', #3, #4, #57 ) ;
#85 = CC_DESIGN_PERSON_AND_ORGANIZATION_ASSIGNMENT ( #166, #203, ( #221 ) ) ;
#86 = ORIENTED_EDGE ( 'NONE', *, *, #61, .F. ) ;
#87 = CARTESIAN_POINT ( 'NONE',  ( 1.269225651341189078E-15, -4.451844304646120884E-17, 0.3635206745116770222 ) ) ;
#88 = ORIENTED_EDGE ( 'NONE', *, *, #38, .F. ) ;
#89 = DIRECTION ( 'NONE',  ( -3.491481338843133355E-15, 1.224646799147353207E-16, -1.000000000000000000 ) ) ;
#90 = EDGE_LOOP ( 'NONE', ( #86 ) ) ;
#91 =( NAMED_UNIT ( * ) SI_UNIT ( $, .STERADIAN. ) SOLID_ANGLE_UNIT ( ) );
#92 = FACE_OUTER_BOUND ( 'NONE', #154, .T. ) ;
#93 = CIRCLE ( 'NONE', #138, 0.7499999999999967804 ) ;
#94 = EDGE_LOOP ( 'NONE', ( #55 ) ) ;
#95 = DIRECTION ( 'NONE',  ( 0.0000000000000000000, 0.0000000000000000000, 1.000000000000000000 ) ) ;
#96 = FACE_OUTER_BOUND ( 'NONE', #162, .T. ) ;
#97 = DATE_AND_TIME ( #118, #45 ) ;
#98 = AXIS2_PLACEMENT_3D ( 'NONE', #76, #28, #223 ) ;
#99 = APPROVAL_STATUS ( 'not_yet_approved' ) ;
#100 = DATE_TIME_ROLE ( 'classification_date' ) ;
#101 = AXIS2_PLACEMENT_3D ( 'NONE', #66, #135, #204 ) ;
#102 = AXIS2_PLACEMENT_3D ( 'NONE', #60, #173, #194 ) ;
#103 = CARTESIAN_POINT ( 'NONE',  ( 3.579168973395178456E-14, -1.255403481070375200E-15, 10.25114736709748442 ) ) ;
#104 = APPROVAL ( #99, 'UNSPECIFIED' ) ;
#105 = ORIENTED_EDGE ( 'NONE', *, *, #82, .T. ) ;
#106 = DIRECTION ( 'NONE',  ( -3.491481338843133355E-15, 1.224646799147353207E-16, -1.000000000000000000 ) ) ;
#107 = LOCAL_TIME ( 15, 46, 31.00000000000000000, #184 ) ;
#108 = FACE_BOUND ( 'NONE', #73, .T. ) ;
#109 = DIRECTION ( 'NONE',  ( 3.183355279978910108E-31, 1.000000000000000000, 8.960348532938075330E-17 ) ) ;
#110 = CARTESIAN_POINT ( 'NONE',  ( 3.491481338843133986E-14, 0.6049999999999996492, 10.00000000000000178 ) ) ;
#111 =( GEOMETRIC_REPRESENTATION_CONTEXT ( 3 ) GLOBAL_UNCERTAINTY_ASSIGNED_CONTEXT ( ( #205 ) ) GLOBAL_UNIT_ASSIGNED_CONTEXT ( ( #9, #197, #91 ) ) REPRESENTATION_CONTEXT ( 'NONE', 'WORKASPACE' ) );
#112 = APPLICATION_PROTOCOL_DEFINITION ( 'international standard', 'config_control_design', 1994, #14 ) ;
#113 = ADVANCED_FACE ( 'NONE', ( #42 ), #156, .F. ) ;
#114 = PERSON_AND_ORGANIZATION_ROLE ( 'creator' ) ;
#115 = CLOSED_SHELL ( 'NONE', ( #113, #129, #198, #7, #175 ) ) ;
#116 = CC_DESIGN_APPROVAL ( #104, ( #36 ) ) ;
#117 = APPROVAL_ROLE ( '' ) ;
#118 = CALENDAR_DATE ( 2021, 7, 10 ) ;
#119 = VERTEX_POINT ( 'NONE', #189 ) ;
#120 = DESIGN_CONTEXT ( 'detailed design', #14, 'design' ) ;
#121 = CC_DESIGN_DATE_AND_TIME_ASSIGNMENT ( #27, #100, ( #36 ) ) ;
#122 = AXIS2_PLACEMENT_3D ( 'NONE', #125, #106, #177 ) ;
#123 = APPROVAL_PERSON_ORGANIZATION ( #183, #209, #180 ) ;
#124 = CARTESIAN_POINT ( 'NONE',  ( 3.579168973395178456E-14, -1.255403481070375200E-15, 10.25114736709748442 ) ) ;
#125 = CARTESIAN_POINT ( 'NONE',  ( 1.047444401652940007E-13, 4.124339402320045473E-33, 30.00000000000000000 ) ) ;
#126 = FACE_OUTER_BOUND ( 'NONE', #6, .T. ) ;
#127 = CC_DESIGN_PERSON_AND_ORGANIZATION_ASSIGNMENT ( #146, #170, ( #137 ) ) ;
#128 = CARTESIAN_POINT ( 'NONE',  ( 1.269225651341189078E-15, -4.451844304646120884E-17, 0.3635206745116770222 ) ) ;
#129 = ADVANCED_FACE ( 'NONE', ( #208, #67 ), #213, .T. ) ;
#130 = VERTEX_POINT ( 'NONE', #199 ) ;
#131 = CLOSED_SHELL ( 'NONE', ( #23, #181, #70 ) ) ;
#132 = CYLINDRICAL_SURFACE ( 'NONE', #101, 0.7499999999999981126 ) ;
#133 = MANIFOLD_SOLID_BREP ( 'Corps-Déplacer/Copier1[2]', #131 ) ;
#134 = MANIFOLD_SOLID_BREP ( 'Corps-Déplacer/Copier1[1]', #115 ) ;
#135 = DIRECTION ( 'NONE',  ( -3.491481338843133355E-15, 1.224646799147353207E-16, -1.000000000000000000 ) ) ;
#136 = EDGE_LOOP ( 'NONE', ( #88 ) ) ;
#137 = PRODUCT_DEFINITION ( 'UNKNOWN', '', #221, #120 ) ;
#138 = AXIS2_PLACEMENT_3D ( 'NONE', #103, #72, #155 ) ;
#139 = EDGE_LOOP ( 'NONE', ( #148 ) ) ;
#140 = ORGANIZATION ( 'UNSPECIFIED', 'UNSPECIFIED', '' ) ;
#141 = CARTESIAN_POINT ( 'NONE',  ( 1.040461438975253866E-13, 0.7499999999999955591, 29.80000000000000426 ) ) ;
#142 = DIRECTION ( 'NONE',  ( 0.0000000000000000000, 1.000000000000000000, 0.0000000000000000000 ) ) ;
#143 = DIRECTION ( 'NONE',  ( -3.183355279978910108E-31, -1.000000000000000000, -8.960348532938075330E-17 ) ) ;
#144 = DIRECTION ( 'NONE',  ( -4.275831445896958607E-31, -1.000000000000000000, -1.224646799147353207E-16 ) ) ;
#145 = MECHANICAL_CONTEXT ( 'NONE', #217, 'mechanical' ) ;
#146 = PERSON_AND_ORGANIZATION ( #218, #140 ) ;
#147 = CC_DESIGN_DATE_AND_TIME_ASSIGNMENT ( #81, #186, ( #137 ) ) ;
#148 = ORIENTED_EDGE ( 'NONE', *, *, #190, .F. ) ;
#149 = ADVANCED_BREP_SHAPE_REPRESENTATION ( '26225', ( #134, #133, #206 ), #111 ) ;
#150 = CC_DESIGN_SECURITY_CLASSIFICATION ( #36, ( #221 ) ) ;
#151 = LOCAL_TIME ( 15, 46, 31.00000000000000000, #8 ) ;
#152 = DATE_AND_TIME ( #80, #171 ) ;
#153 = CARTESIAN_POINT ( 'NONE',  ( 1.047444401652940007E-13, -3.673940397442059178E-15, 30.00000000000000000 ) ) ;
#154 = EDGE_LOOP ( 'NONE', ( #26 ) ) ;
#155 = DIRECTION ( 'NONE',  ( 0.0000000000000000000, 1.000000000000000000, 0.0000000000000000000 ) ) ;
#156 = PLANE ( 'NONE',  #84 ) ;
#157 = FACE_OUTER_BOUND ( 'NONE', #94, .T. ) ;
#158 = VERTEX_POINT ( 'NONE', #219 ) ;
#159 = ORIENTED_EDGE ( 'NONE', *, *, #22, .F. ) ;
#160 = PERSON_AND_ORGANIZATION_ROLE ( 'design_owner' ) ;
#161 = CONICAL_SURFACE ( 'NONE', #52, 0.6049999999999985389, 1.029744258676649871 ) ;
#162 = EDGE_LOOP ( 'NONE', ( #40 ) ) ;
#163 = DIRECTION ( 'NONE',  ( 1.000000000000000000, 0.0000000000000000000, 0.0000000000000000000 ) ) ;
#164 = CIRCLE ( 'NONE', #58, 0.6050000000000008704 ) ;
#165 = LOCAL_TIME ( 15, 46, 31.00000000000000000, #49 ) ;
#166 = PERSON_AND_ORGANIZATION ( #218, #140 ) ;
#167 = DIRECTION ( 'NONE',  ( 0.0000000000000000000, 1.000000000000000000, 0.0000000000000000000 ) ) ;
#168 = COORDINATED_UNIVERSAL_TIME_OFFSET ( 1, 0, .AHEAD. ) ;
#169 = CIRCLE ( 'NONE', #69, 0.5499999999999990452 ) ;
#170 = PERSON_AND_ORGANIZATION_ROLE ( 'creator' ) ;
#171 = LOCAL_TIME ( 15, 46, 31.00000000000000000, #222 ) ;
#172 = EDGE_LOOP ( 'NONE', ( #20 ) ) ;
#173 = DIRECTION ( 'NONE',  ( -3.491481338843133355E-15, 1.224646799147353207E-16, -1.000000000000000000 ) ) ;
#174 = DIRECTION ( 'NONE',  ( 3.491481338843133355E-15, -1.224646799147353207E-16, 1.000000000000000000 ) ) ;
#175 = ADVANCED_FACE ( 'NONE', ( #210 ), #56, .F. ) ;
#176 = CIRCLE ( 'NONE', #54, 0.7499999999999992228 ) ;
#177 = DIRECTION ( 'NONE',  ( 4.275831445896958607E-31, 1.000000000000000000, 1.224646799147353207E-16 ) ) ;
#178 = APPROVAL_STATUS ( 'not_yet_approved' ) ;
#179 = CARTESIAN_POINT ( 'NONE',  ( 1.047444401652940007E-13, -3.673940397442059178E-15, 30.00000000000000000 ) ) ;
#180 = APPROVAL_ROLE ( '' ) ;
#181 = ADVANCED_FACE ( 'NONE', ( #126, #96 ), #200, .T. ) ;
#182 = VERTEX_POINT ( 'NONE', #110 ) ;
#183 = PERSON_AND_ORGANIZATION ( #218, #140 ) ;
#184 = COORDINATED_UNIVERSAL_TIME_OFFSET ( 1, 0, .AHEAD. ) ;
#185 = PERSON_AND_ORGANIZATION ( #218, #140 ) ;
#186 = DATE_TIME_ROLE ( 'creation_date' ) ;
#187 = CC_DESIGN_PERSON_AND_ORGANIZATION_ASSIGNMENT ( #201, #114, ( #221 ) ) ;
#188 = APPROVAL_DATE_TIME ( #97, #104 ) ;
#189 = CARTESIAN_POINT ( 'NONE',  ( 1.269225651341189275E-15, 0.6049999999999985389, 0.3635206745116770777 ) ) ;
#190 = EDGE_CURVE ( 'NONE', #158, #158, #169, .T. ) ;
#191 = CC_DESIGN_APPROVAL ( #209, ( #137 ) ) ;
#192 = CARTESIAN_POINT ( 'NONE',  ( 1.040461438975253866E-13, -3.649447461459112464E-15, 29.80000000000000426 ) ) ;
#193 = DIRECTION ( 'NONE',  ( -3.491481338843133355E-15, 1.224646799147353207E-16, -1.000000000000000000 ) ) ;
#194 = DIRECTION ( 'NONE',  ( 0.0000000000000000000, 1.000000000000000000, 0.0000000000000000000 ) ) ;
#195 = CARTESIAN_POINT ( 'NONE',  ( 3.491481338843133986E-14, -2.079055818835246452E-31, 10.00000000000000178 ) ) ;
#196 = DIRECTION ( 'NONE',  ( 3.491481338843133355E-15, -1.224646799147353207E-16, 1.000000000000000000 ) ) ;
#197 =( NAMED_UNIT ( * ) PLANE_ANGLE_UNIT ( ) SI_UNIT ( $, .RADIAN. ) );
#198 = ADVANCED_FACE ( 'NONE', ( #64, #12 ), #132, .T. ) ;
#199 = CARTESIAN_POINT ( 'NONE',  ( 3.491481338843133986E-14, 0.6049999999999996492, 10.00000000000000178 ) ) ;
#200 = CYLINDRICAL_SURFACE ( 'NONE', #98, 0.6049999999999996492 ) ;
#201 = PERSON_AND_ORGANIZATION ( #218, #140 ) ;
#202 = CALENDAR_DATE ( 2021, 7, 10 ) ;
#203 = PERSON_AND_ORGANIZATION_ROLE ( 'design_supplier' ) ;
#204 = DIRECTION ( 'NONE',  ( 4.275831445896958607E-31, 1.000000000000000000, 1.224646799147353207E-16 ) ) ;
#205 = UNCERTAINTY_MEASURE_WITH_UNIT (LENGTH_MEASURE( 1.000000000000000082E-05 ), #9, 'distance_accuracy_value', 'NONE');
#206 = AXIS2_PLACEMENT_3D ( 'NONE', #79, #95, #163 ) ;
#207 = ORIENTED_EDGE ( 'NONE', *, *, #82, .F. ) ;
#208 = FACE_BOUND ( 'NONE', #90, .T. ) ;
#209 = APPROVAL ( #178, 'UNSPECIFIED' ) ;
#210 = FACE_OUTER_BOUND ( 'NONE', #139, .T. ) ;
#211 = PRODUCT ( '26225', '26225', '', ( #145 ) ) ;
#212 = VERTEX_POINT ( 'NONE', #59 ) ;
#213 = CONICAL_SURFACE ( 'NONE', #44, 0.7499999999999967804, 0.5235987755982943748 ) ;
#214 = DIRECTION ( 'NONE',  ( -3.491481338843133355E-15, 1.224646799147353207E-16, -1.000000000000000000 ) ) ;
#215 = APPROVAL ( #13, 'UNSPECIFIED' ) ;
#216 = DATE_AND_TIME ( #75, #151 ) ;
#217 = APPLICATION_CONTEXT ( 'configuration controlled 3d designs of mechanical parts and assemblies' ) ;
#218 = PERSON ( 'UNSPECIFIED', 'UNSPECIFIED', 'UNSPECIFIED', ('UNSPECIFIED'), ('UNSPECIFIED'), ('UNSPECIFIED') ) ;
#219 = CARTESIAN_POINT ( 'NONE',  ( 1.047444401652940007E-13, 0.5499999999999953815, 30.00000000000000000 ) ) ;
#220 = PERSON_AND_ORGANIZATION ( #218, #140 ) ;
#221 = PRODUCT_DEFINITION_FORMATION_WITH_SPECIFIED_SOURCE ( 'ANY', '', #211, .NOT_KNOWN. ) ;
#222 = COORDINATED_UNIVERSAL_TIME_OFFSET ( 1, 0, .AHEAD. ) ;
#223 = DIRECTION ( 'NONE',  ( 4.275831445896959482E-31, 1.000000000000000000, 1.224646799147352961E-16 ) ) ;
ENDSEC;
END-ISO-10303-21;
