ISO-10303-21;
HEADER;
FILE_DESCRIPTION (( 'STEP AP203' ),
    '1' );
FILE_NAME ('262.step',
    '2021-09-03T07:21:38',
    ( '' ),
    ( '' ),
    'SwSTEP 2.0',
    'SolidWorks 2019',
    '' );
FILE_SCHEMA (( 'CONFIG_CONTROL_DESIGN' ));
ENDSEC;

DATA;
#1 = ORIENTED_EDGE ( 'NONE', *, *, #249, .F. ) ;
#2 = ADVANCED_FACE ( 'NONE', ( #110 ), #211, .T. ) ;
#3 = CARTESIAN_POINT ( 'NONE',  ( 1.040461438975253740E-13, 0.6499999999999962474, 29.80000000000000071 ) ) ;
#4 = AXIS2_PLACEMENT_3D ( 'NONE', #56, #33, #5 ) ;
#5 = DIRECTION ( 'NONE',  ( 2.962969145211149362E-31, 1.000000000000000000, 8.340016711427005825E-17 ) ) ;
#6 = DIRECTION ( 'NONE',  ( 0.0000000000000000000, 0.0000000000000000000, 1.000000000000000000 ) ) ;
#7 = CC_DESIGN_PERSON_AND_ORGANIZATION_ASSIGNMENT ( #224, #14, ( #292 ) ) ;
#8 = DIRECTION ( 'NONE',  ( -3.491481338843133355E-15, 1.224646799147353207E-16, -1.000000000000000000 ) ) ;
#9 =( GEOMETRIC_REPRESENTATION_CONTEXT ( 3 ) GLOBAL_UNCERTAINTY_ASSIGNED_CONTEXT ( ( #82 ) ) GLOBAL_UNIT_ASSIGNED_CONTEXT ( ( #158, #212, #107 ) ) REPRESENTATION_CONTEXT ( 'NONE', 'WORKASPACE' ) );
#10 = ORIENTED_EDGE ( 'NONE', *, *, #243, .T. ) ;
#11 = PRODUCT ( '262', '262', '', ( #190 ) ) ;
#12 = PERSON_AND_ORGANIZATION_ROLE ( 'creator' ) ;
#13 = EDGE_LOOP ( 'NONE', ( #144, #297 ) ) ;
#14 = PERSON_AND_ORGANIZATION_ROLE ( 'classification_officer' ) ;
#15 = ADVANCED_BREP_SHAPE_REPRESENTATION ( '262', ( #285, #167, #57 ), #9 ) ;
#16 = LOCAL_TIME ( 9, 21, 38.00000000000000000, #92 ) ;
#17 = ORIENTED_EDGE ( 'NONE', *, *, #268, .F. ) ;
#18 = CALENDAR_DATE ( 2021, 3, 9 ) ;
#19 = VERTEX_POINT ( 'NONE', #262 ) ;
#20 = AXIS2_PLACEMENT_3D ( 'NONE', #205, #74, #283 ) ;
#21 = ORGANIZATION ( 'UNSPECIFIED', 'UNSPECIFIED', '' ) ;
#22 = CARTESIAN_POINT ( 'NONE',  ( 7.960204194457727684E-17, -0.6499999999999966915, -7.960204194457783151E-17 ) ) ;
#23 = DIRECTION ( 'NONE',  ( 3.491481338843133355E-15, -1.224646799147353207E-16, 1.000000000000000000 ) ) ;
#24 = DIRECTION ( 'NONE',  ( -2.962969145211149362E-31, -1.000000000000000000, -8.340016711427005825E-17 ) ) ;
#25 = CARTESIAN_POINT ( 'NONE',  ( 1.443232907021884080E-15, 0.6499999999999962474, 0.3905594023679163640 ) ) ;
#26 = CIRCLE ( 'NONE', #214, 0.6499999999999962474 ) ;
#27 = DIRECTION ( 'NONE',  ( 3.491481338843133355E-15, -1.224646799147353207E-16, 1.000000000000000000 ) ) ;
#28 = COORDINATED_UNIVERSAL_TIME_OFFSET ( 1, 0, .AHEAD. ) ;
#29 = CARTESIAN_POINT ( 'NONE',  ( 2.793185071074506684E-14, 0.6499999999999962474, 8.000000000000000000 ) ) ;
#30 = DIRECTION ( 'NONE',  ( -4.275831445896958607E-31, -1.000000000000000000, -1.224646799147353207E-16 ) ) ;
#31 = DIRECTION ( 'NONE',  ( -2.382254525458708792E-15, -0.7071067811865495711, -0.7071067811865455743 ) ) ;
#32 = DIRECTION ( 'NONE',  ( 4.275831445896958607E-31, 1.000000000000000000, 1.224646799147353207E-16 ) ) ;
#33 = DIRECTION ( 'NONE',  ( -3.491481338843133355E-15, 1.224646799147353207E-16, -1.000000000000000000 ) ) ;
#34 = PERSON_AND_ORGANIZATION_ROLE ( 'design_owner' ) ;
#35 = ORIENTED_EDGE ( 'NONE', *, *, #76, .T. ) ;
#36 = PERSON_AND_ORGANIZATION_ROLE ( 'design_supplier' ) ;
#37 = APPLICATION_CONTEXT ( 'configuration controlled 3d designs of mechanical parts and assemblies' ) ;
#38 = EDGE_LOOP ( 'NONE', ( #44, #147 ) ) ;
#39 = APPROVAL_STATUS ( 'not_yet_approved' ) ;
#40 = LOCAL_TIME ( 9, 21, 38.00000000000000000, #28 ) ;
#41 = ORIENTED_EDGE ( 'NONE', *, *, #186, .F. ) ;
#42 = ORIENTED_EDGE ( 'NONE', *, *, #206, .T. ) ;
#43 = AXIS2_PLACEMENT_3D ( 'NONE', #133, #337, #291 ) ;
#44 = ORIENTED_EDGE ( 'NONE', *, *, #76, .F. ) ;
#45 = DIRECTION ( 'NONE',  ( 1.903218546456022717E-15, 0.8571673007021097801, 0.5150380749100585964 ) ) ;
#46 = CLOSED_SHELL ( 'NONE', ( #139, #259, #293, #2, #140, #196 ) ) ;
#47 = CARTESIAN_POINT ( 'NONE',  ( 1.047444401652940007E-13, 0.4499999999999962919, 30.00000000000000000 ) ) ;
#48 = DIRECTION ( 'NONE',  ( -3.491481338843133355E-15, 1.224646799147353207E-16, -1.000000000000000000 ) ) ;
#49 = CARTESIAN_POINT ( 'NONE',  ( 1.363630865077306273E-15, -4.782973219867718930E-17, 0.3905594023679163085 ) ) ;
#50 = CARTESIAN_POINT ( 'NONE',  ( 2.793185071074506684E-14, 4.874219293651002330E-33, 8.000000000000000000 ) ) ;
#51 = APPROVAL_ROLE ( '' ) ;
#52 = ORIENTED_EDGE ( 'NONE', *, *, #249, .T. ) ;
#53 = DIRECTION ( 'NONE',  ( -3.491481338843133355E-15, 1.224646799147353207E-16, -1.000000000000000000 ) ) ;
#54 = EDGE_CURVE ( 'NONE', #19, #309, #86, .T. ) ;
#55 = FACE_OUTER_BOUND ( 'NONE', #38, .T. ) ;
#56 = CARTESIAN_POINT ( 'NONE',  ( 1.363630865077306273E-15, -4.782973219867718930E-17, 0.3905594023679163085 ) ) ;
#57 = AXIS2_PLACEMENT_3D ( 'NONE', #58, #6, #162 ) ;
#58 = CARTESIAN_POINT ( 'NONE',  ( 0.0000000000000000000, 0.0000000000000000000, 0.0000000000000000000 ) ) ;
#59 = DESIGN_CONTEXT ( 'detailed design', #245, 'design' ) ;
#60 = PERSON_AND_ORGANIZATION ( #93, #21 ) ;
#61 = ORIENTED_EDGE ( 'NONE', *, *, #149, .T. ) ;
#62 = EDGE_CURVE ( 'NONE', #90, #168, #124, .T. ) ;
#63 = ORIENTED_EDGE ( 'NONE', *, *, #243, .F. ) ;
#64 = CC_DESIGN_PERSON_AND_ORGANIZATION_ASSIGNMENT ( #266, #34, ( #11 ) ) ;
#65 = CC_DESIGN_PERSON_AND_ORGANIZATION_ASSIGNMENT ( #246, #36, ( #215 ) ) ;
#66 = VERTEX_POINT ( 'NONE', #29 ) ;
#67 = DIRECTION ( 'NONE',  ( 0.0000000000000000000, 1.000000000000000000, 0.0000000000000000000 ) ) ;
#68 = AXIS2_PLACEMENT_3D ( 'NONE', #236, #48, #32 ) ;
#69 = LOCAL_TIME ( 9, 21, 38.00000000000000000, #323 ) ;
#70 = EDGE_LOOP ( 'NONE', ( #269, #10, #94, #88 ) ) ;
#71 = AXIS2_PLACEMENT_3D ( 'NONE', #314, #228, #84 ) ;
#72 = VECTOR ( 'NONE', #334, 1000.000000000000000 ) ;
#73 = DIRECTION ( 'NONE',  ( -3.491481338843133355E-15, 1.224646799147353207E-16, -1.000000000000000000 ) ) ;
#74 = DIRECTION ( 'NONE',  ( -3.491481338843133355E-15, 1.224646799147353207E-16, -1.000000000000000000 ) ) ;
#75 = DIRECTION ( 'NONE',  ( -3.491481338843133355E-15, 1.224646799147353207E-16, -1.000000000000000000 ) ) ;
#76 = EDGE_CURVE ( 'NONE', #66, #241, #125, .T. ) ;
#77 = DIRECTION ( 'NONE',  ( 2.962969145211149362E-31, 1.000000000000000000, 8.340016711427005825E-17 ) ) ;
#78 = EDGE_CURVE ( 'NONE', #247, #237, #330, .T. ) ;
#79 = DIRECTION ( 'NONE',  ( -3.491481338843133355E-15, 1.224646799147353207E-16, -1.000000000000000000 ) ) ;
#80 = CALENDAR_DATE ( 2021, 3, 9 ) ;
#81 = DIRECTION ( 'NONE',  ( -2.468850131082257455E-15, 0.7071067811865497932, -0.7071067811865453523 ) ) ;
#82 = UNCERTAINTY_MEASURE_WITH_UNIT (LENGTH_MEASURE( 1.000000000000000082E-05 ), #158, 'distance_accuracy_value', 'NONE');
#83 = DIRECTION ( 'NONE',  ( 0.0000000000000000000, 1.000000000000000000, 0.0000000000000000000 ) ) ;
#84 = DIRECTION ( 'NONE',  ( 0.0000000000000000000, 1.000000000000000000, 0.0000000000000000000 ) ) ;
#85 = CYLINDRICAL_SURFACE ( 'NONE', #183, 0.6499999999999966915 ) ;
#86 = CIRCLE ( 'NONE', #71, 0.6499999999999972466 ) ;
#87 = CC_DESIGN_APPROVAL ( #163, ( #294 ) ) ;
#88 = ORIENTED_EDGE ( 'NONE', *, *, #78, .F. ) ;
#89 = CC_DESIGN_DATE_AND_TIME_ASSIGNMENT ( #121, #169, ( #294 ) ) ;
#90 = VERTEX_POINT ( 'NONE', #148 ) ;
#91 = ORIENTED_EDGE ( 'NONE', *, *, #302, .T. ) ;
#92 = COORDINATED_UNIVERSAL_TIME_OFFSET ( 1, 0, .AHEAD. ) ;
#93 = PERSON ( 'UNSPECIFIED', 'UNSPECIFIED', 'UNSPECIFIED', ('UNSPECIFIED'), ('UNSPECIFIED'), ('UNSPECIFIED') ) ;
#94 = ORIENTED_EDGE ( 'NONE', *, *, #186, .T. ) ;
#95 = APPROVAL_ROLE ( '' ) ;
#96 = PRODUCT_DEFINITION_SHAPE ( 'NONE', 'NONE',  #294 ) ;
#97 = ORIENTED_EDGE ( 'NONE', *, *, #206, .F. ) ;
#98 = DATE_AND_TIME ( #18, #137 ) ;
#99 = DIRECTION ( 'NONE',  ( 0.0000000000000000000, 1.000000000000000000, 0.0000000000000000000 ) ) ;
#100 = DIRECTION ( 'NONE',  ( 0.0000000000000000000, 1.000000000000000000, 0.0000000000000000000 ) ) ;
#101 = AXIS2_PLACEMENT_3D ( 'NONE', #151, #258, #288 ) ;
#102 = DIRECTION ( 'NONE',  ( -4.275831445896958607E-31, -1.000000000000000000, -1.224646799147353207E-16 ) ) ;
#103 = DIRECTION ( 'NONE',  ( -3.491481338843133355E-15, 1.224646799147353207E-16, -1.000000000000000000 ) ) ;
#104 = CC_DESIGN_PERSON_AND_ORGANIZATION_ASSIGNMENT ( #164, #320, ( #294 ) ) ;
#105 = EDGE_CURVE ( 'NONE', #90, #290, #255, .T. ) ;
#106 = DIRECTION ( 'NONE',  ( -3.491481338843133355E-15, 1.224646799147353207E-16, -1.000000000000000000 ) ) ;
#107 =( NAMED_UNIT ( * ) SI_UNIT ( $, .STERADIAN. ) SOLID_ANGLE_UNIT ( ) );
#108 = FACE_OUTER_BOUND ( 'NONE', #70, .T. ) ;
#109 = CARTESIAN_POINT ( 'NONE',  ( 2.793185071074506684E-14, -9.797174393178825657E-16, 8.000000000000000000 ) ) ;
#110 = FACE_OUTER_BOUND ( 'NONE', #218, .T. ) ;
#111 = FACE_OUTER_BOUND ( 'NONE', #244, .T. ) ;
#112 = CARTESIAN_POINT ( 'NONE',  ( 0.0000000000000000000, 0.0000000000000000000, 0.0000000000000000000 ) ) ;
#113 = PERSON_AND_ORGANIZATION ( #93, #21 ) ;
#114 = VECTOR ( 'NONE', #79, 1000.000000000000000 ) ;
#115 = CIRCLE ( 'NONE', #43, 0.6500000000000000222 ) ;
#116 = APPROVAL ( #39, 'UNSPECIFIED' ) ;
#117 = ORIENTED_EDGE ( 'NONE', *, *, #223, .T. ) ;
#118 = SECURITY_CLASSIFICATION_LEVEL ( 'unclassified' ) ;
#119 = DATE_AND_TIME ( #194, #16 ) ;
#120 = VECTOR ( 'NONE', #150, 1000.000000000000000 ) ;
#121 = DATE_AND_TIME ( #248, #189 ) ;
#122 = EDGE_LOOP ( 'NONE', ( #1, #63 ) ) ;
#123 = PERSON_AND_ORGANIZATION ( #93, #21 ) ;
#124 = LINE ( 'NONE', #175, #165 ) ;
#125 = CIRCLE ( 'NONE', #275, 0.6499999999999972466 ) ;
#126 = CARTESIAN_POINT ( 'NONE',  ( 1.363630865077306273E-15, -4.782973219867718930E-17, 0.3905594023679163085 ) ) ;
#127 = FACE_OUTER_BOUND ( 'NONE', #184, .T. ) ;
#128 = CARTESIAN_POINT ( 'NONE',  ( 2.779290439833017226E-31, 0.6499999999999986899, 7.960204194457779453E-17 ) ) ;
#129 = ADVANCED_FACE ( 'NONE', ( #55 ), #198, .T. ) ;
#130 = CARTESIAN_POINT ( 'NONE',  ( 1.044626476053627967E-13, -0.4500000000000036748, 30.00000000000000000 ) ) ;
#131 = FACE_OUTER_BOUND ( 'NONE', #193, .T. ) ;
#132 = DIRECTION ( 'NONE',  ( -3.491481338843133355E-15, 1.224646799147353207E-16, -1.000000000000000000 ) ) ;
#133 = CARTESIAN_POINT ( 'NONE',  ( 1.040461438975253740E-13, -3.649447461459112464E-15, 29.80000000000000071 ) ) ;
#134 = CARTESIAN_POINT ( 'NONE',  ( 1.363630865077306076E-15, -0.6499999999999962474, 0.3905594023679162530 ) ) ;
#135 = DIRECTION ( 'NONE',  ( 3.491481338843133355E-15, -1.224646799147353207E-16, 1.000000000000000000 ) ) ;
#136 = CONICAL_SURFACE ( 'NONE', #260, 0.6499999999999962474, 1.029744258676649649 ) ;
#137 = LOCAL_TIME ( 9, 21, 38.00000000000000000, #219 ) ;
#138 = APPLICATION_PROTOCOL_DEFINITION ( 'international standard', 'config_control_design', 1994, #245 ) ;
#139 = ADVANCED_FACE ( 'NONE', ( #127 ), #315, .T. ) ;
#140 = ADVANCED_FACE ( 'NONE', ( #108 ), #312, .T. ) ;
#141 = AXIS2_PLACEMENT_3D ( 'NONE', #276, #23, #102 ) ;
#142 = ORIENTED_EDGE ( 'NONE', *, *, #105, .T. ) ;
#143 = ORIENTED_EDGE ( 'NONE', *, *, #54, .F. ) ;
#144 = ORIENTED_EDGE ( 'NONE', *, *, #282, .T. ) ;
#145 = CLOSED_SHELL ( 'NONE', ( #326, #197, #234, #208, #129 ) ) ;
#146 = APPROVAL_PERSON_ORGANIZATION ( #60, #242, #267 ) ;
#147 = ORIENTED_EDGE ( 'NONE', *, *, #223, .F. ) ;
#148 = CARTESIAN_POINT ( 'NONE',  ( 0.0000000000000000000, 0.0000000000000000000, 0.0000000000000000000 ) ) ;
#149 = EDGE_CURVE ( 'NONE', #168, #290, #26, .T. ) ;
#150 = DIRECTION ( 'NONE',  ( -3.491481338843133355E-15, 1.224646799147353207E-16, -1.000000000000000000 ) ) ;
#151 = CARTESIAN_POINT ( 'NONE',  ( 0.0000000000000000000, 0.0000000000000000000, 0.0000000000000000000 ) ) ;
#152 = DIRECTION ( 'NONE',  ( -3.491481338843133355E-15, 1.224646799147353207E-16, -1.000000000000000000 ) ) ;
#153 = LINE ( 'NONE', #254, #304 ) ;
#154 = CARTESIAN_POINT ( 'NONE',  ( 0.0000000000000000000, 0.0000000000000000000, 0.0000000000000000000 ) ) ;
#155 = CARTESIAN_POINT ( 'NONE',  ( 1.363630865077306076E-15, -0.6499999999999962474, 0.3905594023679162530 ) ) ;
#156 = LINE ( 'NONE', #264, #210 ) ;
#157 = PLANE ( 'NONE',  #68 ) ;
#158 =( LENGTH_UNIT ( ) NAMED_UNIT ( * ) SI_UNIT ( .MILLI., .METRE. ) );
#159 = CARTESIAN_POINT ( 'NONE',  ( 2.793185071074506684E-14, 0.6499999999999962474, 8.000000000000000000 ) ) ;
#160 = AXIS2_PLACEMENT_3D ( 'NONE', #336, #132, #235 ) ;
#161 = CC_DESIGN_SECURITY_CLASSIFICATION ( #292, ( #215 ) ) ;
#162 = DIRECTION ( 'NONE',  ( 1.000000000000000000, 0.0000000000000000000, 0.0000000000000000000 ) ) ;
#163 = APPROVAL ( #213, 'UNSPECIFIED' ) ;
#164 = PERSON_AND_ORGANIZATION ( #93, #21 ) ;
#165 = VECTOR ( 'NONE', #45, 999.9999999999998863 ) ;
#166 = AXIS2_PLACEMENT_3D ( 'NONE', #311, #265, #209 ) ;
#167 = MANIFOLD_SOLID_BREP ( 'Corps-Déplacer/Copier1[2]', #145 ) ;
#168 = VERTEX_POINT ( 'NONE', #25 ) ;
#169 = DATE_TIME_ROLE ( 'creation_date' ) ;
#170 = CALENDAR_DATE ( 2021, 3, 9 ) ;
#171 = VERTEX_POINT ( 'NONE', #130 ) ;
#172 = CC_DESIGN_APPROVAL ( #116, ( #292 ) ) ;
#173 = DIRECTION ( 'NONE',  ( 4.275831445896958607E-31, 1.000000000000000000, 1.224646799147353207E-16 ) ) ;
#174 = PRODUCT_RELATED_PRODUCT_CATEGORY ( 'detail', '', ( #11 ) ) ;
#175 = CARTESIAN_POINT ( 'NONE',  ( 1.443232907021884080E-15, 0.6499999999999962474, 0.3905594023679163640 ) ) ;
#176 = AXIS2_PLACEMENT_3D ( 'NONE', #200, #75, #238 ) ;
#177 = FACE_OUTER_BOUND ( 'NONE', #216, .T. ) ;
#178 = ORIENTED_EDGE ( 'NONE', *, *, #225, .F. ) ;
#179 = CYLINDRICAL_SURFACE ( 'NONE', #202, 0.6499999999999966915 ) ;
#180 = ORIENTED_EDGE ( 'NONE', *, *, #149, .F. ) ;
#181 = CARTESIAN_POINT ( 'NONE',  ( 1.472734282985574050E-14, -0.6499999999999983569, 8.000000000000000000 ) ) ;
#182 = DATE_AND_TIME ( #80, #40 ) ;
#183 = AXIS2_PLACEMENT_3D ( 'NONE', #112, #8, #313 ) ;
#184 = EDGE_LOOP ( 'NONE', ( #52, #287, #239, #41 ) ) ;
#185 = FACE_OUTER_BOUND ( 'NONE', #13, .T. ) ;
#186 = EDGE_CURVE ( 'NONE', #191, #237, #207, .T. ) ;
#187 = EDGE_CURVE ( 'NONE', #171, #247, #156, .T. ) ;
#188 = CC_DESIGN_PERSON_AND_ORGANIZATION_ASSIGNMENT ( #296, #12, ( #215 ) ) ;
#189 = LOCAL_TIME ( 9, 21, 38.00000000000000000, #319 ) ;
#190 = MECHANICAL_CONTEXT ( 'NONE', #37, 'mechanical' ) ;
#191 = VERTEX_POINT ( 'NONE', #47 ) ;
#192 = SHAPE_DEFINITION_REPRESENTATION ( #96, #15 ) ;
#193 = EDGE_LOOP ( 'NONE', ( #97, #117, #220, #271 ) ) ;
#194 = CALENDAR_DATE ( 2021, 3, 9 ) ;
#195 = CARTESIAN_POINT ( 'NONE',  ( 6.606859934607966195E-14, -0.6500000000000036859, 29.80000000000000071 ) ) ;
#196 = ADVANCED_FACE ( 'NONE', ( #331 ), #157, .F. ) ;
#197 = ADVANCED_FACE ( 'NONE', ( #281 ), #136, .T. ) ;
#198 = PLANE ( 'NONE',  #141 ) ;
#199 = APPROVAL_PERSON_ORGANIZATION ( #123, #116, #95 ) ;
#200 = CARTESIAN_POINT ( 'NONE',  ( 2.793185071074506684E-14, -9.797174393178825657E-16, 8.000000000000000000 ) ) ;
#201 = AXIS2_PLACEMENT_3D ( 'NONE', #257, #203, #307 ) ;
#202 = AXIS2_PLACEMENT_3D ( 'NONE', #299, #53, #173 ) ;
#203 = DIRECTION ( 'NONE',  ( -3.491481338843133355E-15, 1.224646799147353207E-16, -1.000000000000000000 ) ) ;
#204 = CYLINDRICAL_SURFACE ( 'NONE', #101, 0.6499999999999986899 ) ;
#205 = CARTESIAN_POINT ( 'NONE',  ( 1.047444401652940007E-13, -3.673940397442059178E-15, 30.00000000000000000 ) ) ;
#206 = EDGE_CURVE ( 'NONE', #241, #290, #232, .T. ) ;
#207 = LINE ( 'NONE', #310, #325 ) ;
#208 = ADVANCED_FACE ( 'NONE', ( #131 ), #179, .T. ) ;
#209 = DIRECTION ( 'NONE',  ( -2.962969145211149362E-31, -1.000000000000000000, -8.340016711427005825E-17 ) ) ;
#210 = VECTOR ( 'NONE', #31, 1000.000000000000114 ) ;
#211 = CYLINDRICAL_SURFACE ( 'NONE', #289, 0.6499999999999986899 ) ;
#212 =( NAMED_UNIT ( * ) PLANE_ANGLE_UNIT ( ) SI_UNIT ( $, .RADIAN. ) );
#213 = APPROVAL_STATUS ( 'not_yet_approved' ) ;
#214 = AXIS2_PLACEMENT_3D ( 'NONE', #49, #152, #77 ) ;
#215 = PRODUCT_DEFINITION_FORMATION_WITH_SPECIFIED_SOURCE ( 'ANY', '', #11, .NOT_KNOWN. ) ;
#216 = EDGE_LOOP ( 'NONE', ( #91, #318, #322, #178 ) ) ;
#217 = DATE_AND_TIME ( #170, #69 ) ;
#218 = EDGE_LOOP ( 'NONE', ( #298, #317, #324, #143 ) ) ;
#219 = COORDINATED_UNIVERSAL_TIME_OFFSET ( 1, 0, .AHEAD. ) ;
#220 = ORIENTED_EDGE ( 'NONE', *, *, #268, .T. ) ;
#221 = DATE_TIME_ROLE ( 'classification_date' ) ;
#222 = ORIENTED_EDGE ( 'NONE', *, *, #105, .F. ) ;
#223 = EDGE_CURVE ( 'NONE', #241, #66, #279, .T. ) ;
#224 = PERSON_AND_ORGANIZATION ( #93, #21 ) ;
#225 = EDGE_CURVE ( 'NONE', #237, #309, #277, .T. ) ;
#226 = CARTESIAN_POINT ( 'NONE',  ( 2.793185071074506684E-14, -9.797174393178825657E-16, 8.000000000000000000 ) ) ;
#227 = CARTESIAN_POINT ( 'NONE',  ( 1.047444401652940007E-13, -3.673940397442059178E-15, 30.00000000000000000 ) ) ;
#228 = DIRECTION ( 'NONE',  ( -3.491481338843133355E-15, 1.224646799147353207E-16, -1.000000000000000000 ) ) ;
#229 = DIRECTION ( 'NONE',  ( -3.491481338843133355E-15, 1.224646799147353207E-16, -1.000000000000000000 ) ) ;
#230 = APPROVAL_PERSON_ORGANIZATION ( #113, #163, #51 ) ;
#231 = ORIENTED_EDGE ( 'NONE', *, *, #306, .T. ) ;
#232 = LINE ( 'NONE', #22, #114 ) ;
#233 = EDGE_CURVE ( 'NONE', #247, #19, #153, .T. ) ;
#234 = ADVANCED_FACE ( 'NONE', ( #303 ), #250, .T. ) ;
#235 = DIRECTION ( 'NONE',  ( 0.0000000000000000000, 1.000000000000000000, 0.0000000000000000000 ) ) ;
#236 = CARTESIAN_POINT ( 'NONE',  ( 1.047444401652940007E-13, 3.374459510989123511E-33, 30.00000000000000000 ) ) ;
#237 = VERTEX_POINT ( 'NONE', #3 ) ;
#238 = DIRECTION ( 'NONE',  ( 0.0000000000000000000, 1.000000000000000000, 0.0000000000000000000 ) ) ;
#239 = ORIENTED_EDGE ( 'NONE', *, *, #302, .F. ) ;
#240 = APPROVAL_DATE_TIME ( #119, #116 ) ;
#241 = VERTEX_POINT ( 'NONE', #181 ) ;
#242 = APPROVAL ( #274, 'UNSPECIFIED' ) ;
#243 = EDGE_CURVE ( 'NONE', #171, #191, #327, .T. ) ;
#244 = EDGE_LOOP ( 'NONE', ( #35, #42, #180, #17 ) ) ;
#245 = APPLICATION_CONTEXT ( 'configuration controlled 3d designs of mechanical parts and assemblies' ) ;
#246 = PERSON_AND_ORGANIZATION ( #93, #21 ) ;
#247 = VERTEX_POINT ( 'NONE', #195 ) ;
#248 = CALENDAR_DATE ( 2021, 3, 9 ) ;
#249 = EDGE_CURVE ( 'NONE', #191, #171, #261, .T. ) ;
#250 = CONICAL_SURFACE ( 'NONE', #166, 0.6499999999999962474, 1.029744258676649649 ) ;
#251 = APPROVAL_DATE_TIME ( #182, #163 ) ;
#252 = EDGE_LOOP ( 'NONE', ( #222, #272, #61 ) ) ;
#253 = VECTOR ( 'NONE', #329, 1000.000000000000000 ) ;
#254 = CARTESIAN_POINT ( 'NONE',  ( 7.960204194457752336E-17, -0.6499999999999986899, -7.960204194457807803E-17 ) ) ;
#255 = LINE ( 'NONE', #134, #253 ) ;
#256 = LINE ( 'NONE', #308, #72 ) ;
#257 = CARTESIAN_POINT ( 'NONE',  ( 1.047444401652940007E-13, -3.673940397442059178E-15, 30.00000000000000000 ) ) ;
#258 = DIRECTION ( 'NONE',  ( -3.491481338843133355E-15, 1.224646799147353207E-16, -1.000000000000000000 ) ) ;
#259 = ADVANCED_FACE ( 'NONE', ( #177 ), #204, .T. ) ;
#260 = AXIS2_PLACEMENT_3D ( 'NONE', #126, #135, #24 ) ;
#261 = CIRCLE ( 'NONE', #305, 0.4500000000000000111 ) ;
#262 = CARTESIAN_POINT ( 'NONE',  ( 6.606859934607976292E-14, -0.6499999999999982458, 8.000000000000000000 ) ) ;
#263 = PLANE ( 'NONE',  #300 ) ;
#264 = CARTESIAN_POINT ( 'NONE',  ( 1.047995492712556201E-13, -0.4500000000000036748, 30.00000000000000000 ) ) ;
#265 = DIRECTION ( 'NONE',  ( 3.491481338843133355E-15, -1.224646799147353207E-16, 1.000000000000000000 ) ) ;
#266 = PERSON_AND_ORGANIZATION ( #93, #21 ) ;
#267 = APPROVAL_ROLE ( '' ) ;
#268 = EDGE_CURVE ( 'NONE', #66, #168, #256, .T. ) ;
#269 = ORIENTED_EDGE ( 'NONE', *, *, #187, .F. ) ;
#270 = CIRCLE ( 'NONE', #332, 0.6499999999999972466 ) ;
#271 = ORIENTED_EDGE ( 'NONE', *, *, #306, .F. ) ;
#272 = ORIENTED_EDGE ( 'NONE', *, *, #62, .T. ) ;
#273 = APPROVAL_DATE_TIME ( #217, #242 ) ;
#274 = APPROVAL_STATUS ( 'not_yet_approved' ) ;
#275 = AXIS2_PLACEMENT_3D ( 'NONE', #226, #106, #99 ) ;
#276 = CARTESIAN_POINT ( 'NONE',  ( 2.793185071074506684E-14, 4.874219293651002330E-33, 8.000000000000000000 ) ) ;
#277 = LINE ( 'NONE', #128, #120 ) ;
#278 = EDGE_LOOP ( 'NONE', ( #295, #142, #231 ) ) ;
#279 = CIRCLE ( 'NONE', #176, 0.6499999999999972466 ) ;
#280 = CIRCLE ( 'NONE', #4, 0.6499999999999962474 ) ;
#281 = FACE_OUTER_BOUND ( 'NONE', #252, .T. ) ;
#282 = EDGE_CURVE ( 'NONE', #309, #19, #270, .T. ) ;
#283 = DIRECTION ( 'NONE',  ( 0.0000000000000000000, 1.000000000000000000, 0.0000000000000000000 ) ) ;
#284 = CC_DESIGN_DATE_AND_TIME_ASSIGNMENT ( #98, #221, ( #292 ) ) ;
#285 = MANIFOLD_SOLID_BREP ( 'Corps-Déplacer/Copier1[1]', #46 ) ;
#286 = DIRECTION ( 'NONE',  ( -3.491481338843133355E-15, 1.224646799147353207E-16, -1.000000000000000000 ) ) ;
#287 = ORIENTED_EDGE ( 'NONE', *, *, #187, .T. ) ;
#288 = DIRECTION ( 'NONE',  ( 4.275831445896958607E-31, 1.000000000000000000, 1.224646799147353207E-16 ) ) ;
#289 = AXIS2_PLACEMENT_3D ( 'NONE', #154, #333, #301 ) ;
#290 = VERTEX_POINT ( 'NONE', #155 ) ;
#291 = DIRECTION ( 'NONE',  ( 0.0000000000000000000, 1.000000000000000000, 0.0000000000000000000 ) ) ;
#292 = SECURITY_CLASSIFICATION ( '', '', #118 ) ;
#293 = ADVANCED_FACE ( 'NONE', ( #185 ), #263, .F. ) ;
#294 = PRODUCT_DEFINITION ( 'UNKNOWN', '', #215, #59 ) ;
#295 = ORIENTED_EDGE ( 'NONE', *, *, #62, .F. ) ;
#296 = PERSON_AND_ORGANIZATION ( #93, #21 ) ;
#297 = ORIENTED_EDGE ( 'NONE', *, *, #54, .T. ) ;
#298 = ORIENTED_EDGE ( 'NONE', *, *, #233, .F. ) ;
#299 = CARTESIAN_POINT ( 'NONE',  ( 0.0000000000000000000, 0.0000000000000000000, 0.0000000000000000000 ) ) ;
#300 = AXIS2_PLACEMENT_3D ( 'NONE', #50, #27, #30 ) ;
#301 = DIRECTION ( 'NONE',  ( 4.275831445896958607E-31, 1.000000000000000000, 1.224646799147353207E-16 ) ) ;
#302 = EDGE_CURVE ( 'NONE', #237, #247, #115, .T. ) ;
#303 = FACE_OUTER_BOUND ( 'NONE', #278, .T. ) ;
#304 = VECTOR ( 'NONE', #229, 1000.000000000000000 ) ;
#305 = AXIS2_PLACEMENT_3D ( 'NONE', #328, #73, #67 ) ;
#306 = EDGE_CURVE ( 'NONE', #290, #168, #280, .T. ) ;
#307 = DIRECTION ( 'NONE',  ( 0.0000000000000000000, 1.000000000000000000, 0.0000000000000000000 ) ) ;
#308 = CARTESIAN_POINT ( 'NONE',  ( 2.779290439833008906E-31, 0.6499999999999966915, 7.960204194457756034E-17 ) ) ;
#309 = VERTEX_POINT ( 'NONE', #159 ) ;
#310 = CARTESIAN_POINT ( 'NONE',  ( 1.047444401652940007E-13, 0.4499999999999962919, 30.00000000000000000 ) ) ;
#311 = CARTESIAN_POINT ( 'NONE',  ( 1.363630865077306273E-15, -4.782973219867718930E-17, 0.3905594023679163085 ) ) ;
#312 = CONICAL_SURFACE ( 'NONE', #20, 0.4500000000000000111, 0.7853981633974512766 ) ;
#313 = DIRECTION ( 'NONE',  ( 4.275831445896958607E-31, 1.000000000000000000, 1.224646799147353207E-16 ) ) ;
#314 = CARTESIAN_POINT ( 'NONE',  ( 2.793185071074506684E-14, -9.797174393178825657E-16, 8.000000000000000000 ) ) ;
#315 = CONICAL_SURFACE ( 'NONE', #201, 0.4500000000000000111, 0.7853981633974512766 ) ;
#316 = CC_DESIGN_APPROVAL ( #242, ( #215 ) ) ;
#317 = ORIENTED_EDGE ( 'NONE', *, *, #78, .T. ) ;
#318 = ORIENTED_EDGE ( 'NONE', *, *, #233, .T. ) ;
#319 = COORDINATED_UNIVERSAL_TIME_OFFSET ( 1, 0, .AHEAD. ) ;
#320 = PERSON_AND_ORGANIZATION_ROLE ( 'creator' ) ;
#321 = AXIS2_PLACEMENT_3D ( 'NONE', #227, #103, #100 ) ;
#322 = ORIENTED_EDGE ( 'NONE', *, *, #282, .F. ) ;
#323 = COORDINATED_UNIVERSAL_TIME_OFFSET ( 1, 0, .AHEAD. ) ;
#324 = ORIENTED_EDGE ( 'NONE', *, *, #225, .T. ) ;
#325 = VECTOR ( 'NONE', #81, 1000.000000000000114 ) ;
#326 = ADVANCED_FACE ( 'NONE', ( #111 ), #85, .T. ) ;
#327 = CIRCLE ( 'NONE', #321, 0.4500000000000000111 ) ;
#328 = CARTESIAN_POINT ( 'NONE',  ( 1.047444401652940007E-13, -3.673940397442059178E-15, 30.00000000000000000 ) ) ;
#329 = DIRECTION ( 'NONE',  ( 1.798245827342160317E-15, -0.8571673007021098911, 0.5150380749100582634 ) ) ;
#330 = CIRCLE ( 'NONE', #160, 0.6500000000000000222 ) ;
#331 = FACE_OUTER_BOUND ( 'NONE', #122, .T. ) ;
#332 = AXIS2_PLACEMENT_3D ( 'NONE', #109, #286, #83 ) ;
#333 = DIRECTION ( 'NONE',  ( -3.491481338843133355E-15, 1.224646799147353207E-16, -1.000000000000000000 ) ) ;
#334 = DIRECTION ( 'NONE',  ( -3.491481338843133355E-15, 1.224646799147353207E-16, -1.000000000000000000 ) ) ;
#335 = APPLICATION_PROTOCOL_DEFINITION ( 'international standard', 'config_control_design', 1994, #37 ) ;
#336 = CARTESIAN_POINT ( 'NONE',  ( 1.040461438975253740E-13, -3.649447461459112464E-15, 29.80000000000000071 ) ) ;
#337 = DIRECTION ( 'NONE',  ( -3.491481338843133355E-15, 1.224646799147353207E-16, -1.000000000000000000 ) ) ;
ENDSEC;
END-ISO-10303-21;
