ISO-10303-21;
HEADER;
FILE_DESCRIPTION (( 'STEP AP203' ),
    '1' );
FILE_NAME ('26183.step',
    '2021-10-07T13:46:30',
    ( '' ),
    ( '' ),
    'SwSTEP 2.0',
    'SolidWorks 2019',
    '' );
FILE_SCHEMA (( 'CONFIG_CONTROL_DESIGN' ));
ENDSEC;

DATA;
#1 = DIRECTION ( 'NONE',  ( -3.491481338843133355E-15, 1.224646799147353207E-16, -1.000000000000000000 ) ) ;
#2 = VERTEX_POINT ( 'NONE', #3 ) ;
#3 = CARTESIAN_POINT ( 'NONE',  ( 1.909083211108226968E-15, 0.9099999999999937028, 0.5467831633150822546 ) ) ;
#4 = CARTESIAN_POINT ( 'NONE',  ( 1.326762908760390423E-13, -4.653657836759941941E-15, 38.00000000000000000 ) ) ;
#5 = PERSON_AND_ORGANIZATION ( #203, #38 ) ;
#6 = CARTESIAN_POINT ( 'NONE',  ( 1.909083211108226574E-15, -6.696162507814798613E-17, 0.5467831633150821435 ) ) ;
#7 = VERTEX_POINT ( 'NONE', #162 ) ;
#8 = APPROVAL ( #145, 'UNSPECIFIED' ) ;
#9 = DIRECTION ( 'NONE',  ( -3.491481338843133355E-15, 1.224646799147353207E-16, -1.000000000000000000 ) ) ;
#10 = DATE_AND_TIME ( #32, #77 ) ;
#11 = CARTESIAN_POINT ( 'NONE',  ( 4.189777606611760026E-14, -1.469576158976823947E-15, 12.00000000000000000 ) ) ;
#12 = EDGE_CURVE ( 'NONE', #213, #213, #122, .T. ) ;
#13 = DIRECTION ( 'NONE',  ( 0.0000000000000000000, -1.000000000000000000, 0.0000000000000000000 ) ) ;
#14 = CONICAL_SURFACE ( 'NONE', #88, 0.9099999999999938138, 1.029744258676649649 ) ;
#15 = EDGE_LOOP ( 'NONE', ( #64 ) ) ;
#16 = LOCAL_TIME ( 15, 46, 30.00000000000000000, #180 ) ;
#17 = VERTEX_POINT ( 'NONE', #83 ) ;
#18 = FACE_OUTER_BOUND ( 'NONE', #134, .T. ) ;
#19 = DIRECTION ( 'NONE',  ( -4.275831445896958607E-31, -1.000000000000000000, -1.224646799147353207E-16 ) ) ;
#20 = APPROVAL_STATUS ( 'not_yet_approved' ) ;
#21 = AXIS2_PLACEMENT_3D ( 'NONE', #103, #109, #175 ) ;
#22 = ADVANCED_FACE ( 'NONE', ( #73, #142 ), #191, .T. ) ;
#23 = PERSON_AND_ORGANIZATION ( #203, #38 ) ;
#24 = APPROVAL_STATUS ( 'not_yet_approved' ) ;
#25 = DIRECTION ( 'NONE',  ( 0.0000000000000000000, 1.000000000000000000, 0.0000000000000000000 ) ) ;
#26 = EDGE_CURVE ( 'NONE', #2, #2, #62, .T. ) ;
#27 = DIRECTION ( 'NONE',  ( 4.275831445896957731E-31, 1.000000000000000000, 1.224646799147353207E-16 ) ) ;
#28 = APPROVAL ( #24, 'UNSPECIFIED' ) ;
#29 =( GEOMETRIC_REPRESENTATION_CONTEXT ( 3 ) GLOBAL_UNCERTAINTY_ASSIGNED_CONTEXT ( ( #219 ) ) GLOBAL_UNIT_ASSIGNED_CONTEXT ( ( #90, #214, #71 ) ) REPRESENTATION_CONTEXT ( 'NONE', 'WORKASPACE' ) );
#30 = FACE_BOUND ( 'NONE', #31, .T. ) ;
#31 = EDGE_LOOP ( 'NONE', ( #52 ) ) ;
#32 = CALENDAR_DATE ( 2021, 7, 10 ) ;
#33 = SECURITY_CLASSIFICATION ( '', '', #76 ) ;
#34 = CC_DESIGN_PERSON_AND_ORGANIZATION_ASSIGNMENT ( #79, #95, ( #140 ) ) ;
#35 = ADVANCED_FACE ( 'NONE', ( #82 ), #189, .T. ) ;
#36 = EDGE_LOOP ( 'NONE', ( #118 ) ) ;
#37 = CLOSED_SHELL ( 'NONE', ( #204, #172, #149, #22, #184 ) ) ;
#38 = ORGANIZATION ( 'UNSPECIFIED', 'UNSPECIFIED', '' ) ;
#39 = EDGE_LOOP ( 'NONE', ( #218 ) ) ;
#40 = CARTESIAN_POINT ( 'NONE',  ( 0.0000000000000000000, 0.0000000000000000000, 0.0000000000000000000 ) ) ;
#41 = MECHANICAL_CONTEXT ( 'NONE', #152, 'mechanical' ) ;
#42 = FACE_OUTER_BOUND ( 'NONE', #206, .T. ) ;
#43 = COORDINATED_UNIVERSAL_TIME_OFFSET ( 1, 0, .AHEAD. ) ;
#44 = APPROVAL_ROLE ( '' ) ;
#45 = PERSON_AND_ORGANIZATION_ROLE ( 'design_owner' ) ;
#46 = PERSON_AND_ORGANIZATION ( #203, #38 ) ;
#47 = APPROVAL_DATE_TIME ( #200, #8 ) ;
#48 = CYLINDRICAL_SURFACE ( 'NONE', #193, 0.9099999999999948130 ) ;
#49 = FACE_OUTER_BOUND ( 'NONE', #36, .T. ) ;
#50 = LOCAL_TIME ( 15, 46, 30.00000000000000000, #130 ) ;
#51 = ORIENTED_EDGE ( 'NONE', *, *, #12, .T. ) ;
#52 = ORIENTED_EDGE ( 'NONE', *, *, #115, .F. ) ;
#53 = PERSON_AND_ORGANIZATION ( #203, #38 ) ;
#54 = CONICAL_SURFACE ( 'NONE', #174, 0.9999999999999978906, 0.5235987755982932645 ) ;
#55 = LOCAL_TIME ( 15, 46, 30.00000000000000000, #74 ) ;
#56 = DIRECTION ( 'NONE',  ( 4.275831445896958607E-31, 1.000000000000000000, 1.224646799147353207E-16 ) ) ;
#57 = CARTESIAN_POINT ( 'NONE',  ( 0.0000000000000000000, 0.0000000000000000000, 0.0000000000000000000 ) ) ;
#58 = ADVANCED_FACE ( 'NONE', ( #18 ), #14, .T. ) ;
#59 = CARTESIAN_POINT ( 'NONE',  ( 1.326762908760390423E-13, 0.7999999999999964917, 38.00000000000000000 ) ) ;
#60 = EDGE_CURVE ( 'NONE', #110, #110, #105, .T. ) ;
#61 = ORIENTED_EDGE ( 'NONE', *, *, #26, .F. ) ;
#62 = CIRCLE ( 'NONE', #119, 0.9099999999999938138 ) ;
#63 = APPROVAL_PERSON_ORGANIZATION ( #23, #186, #75 ) ;
#64 = ORIENTED_EDGE ( 'NONE', *, *, #12, .F. ) ;
#65 = EDGE_LOOP ( 'NONE', ( #136 ) ) ;
#66 = ADVANCED_BREP_SHAPE_REPRESENTATION ( '26183', ( #100, #96, #97 ), #29 ) ;
#67 = ORIENTED_EDGE ( 'NONE', *, *, #60, .F. ) ;
#68 = AXIS2_PLACEMENT_3D ( 'NONE', #11, #183, #69 ) ;
#69 = DIRECTION ( 'NONE',  ( 0.0000000000000000000, 1.000000000000000000, 0.0000000000000000000 ) ) ;
#70 = DIRECTION ( 'NONE',  ( -3.491481338843133355E-15, 1.224646799147353207E-16, -1.000000000000000000 ) ) ;
#71 =( NAMED_UNIT ( * ) SI_UNIT ( $, .STERADIAN. ) SOLID_ANGLE_UNIT ( ) );
#72 = FACE_OUTER_BOUND ( 'NONE', #15, .T. ) ;
#73 = FACE_OUTER_BOUND ( 'NONE', #39, .T. ) ;
#74 = COORDINATED_UNIVERSAL_TIME_OFFSET ( 1, 0, .AHEAD. ) ;
#75 = APPROVAL_ROLE ( '' ) ;
#76 = SECURITY_CLASSIFICATION_LEVEL ( 'unclassified' ) ;
#77 = LOCAL_TIME ( 15, 46, 30.00000000000000000, #205 ) ;
#78 = PERSON_AND_ORGANIZATION ( #203, #38 ) ;
#79 = PERSON_AND_ORGANIZATION ( #203, #38 ) ;
#80 = CARTESIAN_POINT ( 'NONE',  ( 4.244204414264756366E-14, -1.488666513273872968E-15, 12.15588457268120415 ) ) ;
#81 = EDGE_LOOP ( 'NONE', ( #61 ) ) ;
#82 = FACE_OUTER_BOUND ( 'NONE', #208, .T. ) ;
#83 = CARTESIAN_POINT ( 'NONE',  ( 4.189777606611760026E-14, 0.9099999999999941469, 12.00000000000000000 ) ) ;
#84 = DIRECTION ( 'NONE',  ( 3.491481338843133355E-15, -1.224646799147353207E-16, 1.000000000000000000 ) ) ;
#85 = DIRECTION ( 'NONE',  ( 0.0000000000000000000, 1.000000000000000000, 0.0000000000000000000 ) ) ;
#86 = FACE_OUTER_BOUND ( 'NONE', #81, .T. ) ;
#87 = AXIS2_PLACEMENT_3D ( 'NONE', #160, #179, #212 ) ;
#88 = AXIS2_PLACEMENT_3D ( 'NONE', #223, #84, #158 ) ;
#89 = PERSON_AND_ORGANIZATION ( #203, #38 ) ;
#90 =( LENGTH_UNIT ( ) NAMED_UNIT ( * ) SI_UNIT ( .MILLI., .METRE. ) );
#91 = DIRECTION ( 'NONE',  ( 4.275831445896958607E-31, 1.000000000000000000, 1.224646799147353207E-16 ) ) ;
#92 = CIRCLE ( 'NONE', #192, 1.000000000000000888 ) ;
#93 = CALENDAR_DATE ( 2021, 7, 10 ) ;
#94 = CARTESIAN_POINT ( 'NONE',  ( 4.244204414264756366E-14, -1.488666513273872968E-15, 12.15588457268120415 ) ) ;
#95 = PERSON_AND_ORGANIZATION_ROLE ( 'creator' ) ;
#96 = MANIFOLD_SOLID_BREP ( 'Corps-Déplacer/Copier1[2]', #131 ) ;
#97 = AXIS2_PLACEMENT_3D ( 'NONE', #40, #104, #127 ) ;
#98 = PERSON_AND_ORGANIZATION ( #203, #38 ) ;
#99 = EDGE_CURVE ( 'NONE', #7, #7, #92, .T. ) ;
#100 = MANIFOLD_SOLID_BREP ( 'Corps-Déplacer/Copier1[1]', #37 ) ;
#101 = CARTESIAN_POINT ( 'NONE',  ( 4.189777606611760026E-14, -1.469576158976823947E-15, 12.00000000000000000 ) ) ;
#102 = LOCAL_TIME ( 15, 46, 30.00000000000000000, #43 ) ;
#103 = CARTESIAN_POINT ( 'NONE',  ( 4.189777606611760026E-14, 6.823907011111396556E-33, 12.00000000000000000 ) ) ;
#104 = DIRECTION ( 'NONE',  ( 0.0000000000000000000, 0.0000000000000000000, 1.000000000000000000 ) ) ;
#105 = CIRCLE ( 'NONE', #68, 0.9099999999999957012 ) ;
#106 = DATE_AND_TIME ( #108, #50 ) ;
#107 = CARTESIAN_POINT ( 'NONE',  ( 4.189777606611760026E-14, 6.823907011111396556E-33, 12.00000000000000000 ) ) ;
#108 = CALENDAR_DATE ( 2021, 7, 10 ) ;
#109 = DIRECTION ( 'NONE',  ( 3.491481338843133355E-15, -1.224646799147353207E-16, 1.000000000000000000 ) ) ;
#110 = VERTEX_POINT ( 'NONE', #201 ) ;
#111 = FACE_OUTER_BOUND ( 'NONE', #65, .T. ) ;
#112 = PERSON_AND_ORGANIZATION_ROLE ( 'classification_officer' ) ;
#113 = DESIGN_CONTEXT ( 'detailed design', #211, 'design' ) ;
#114 = CC_DESIGN_PERSON_AND_ORGANIZATION_ASSIGNMENT ( #53, #45, ( #138 ) ) ;
#115 = EDGE_CURVE ( 'NONE', #17, #17, #197, .T. ) ;
#116 = PRODUCT_DEFINITION_FORMATION_WITH_SPECIFIED_SOURCE ( 'ANY', '', #138, .NOT_KNOWN. ) ;
#117 = PRODUCT_RELATED_PRODUCT_CATEGORY ( 'detail', '', ( #138 ) ) ;
#118 = ORIENTED_EDGE ( 'NONE', *, *, #178, .F. ) ;
#119 = AXIS2_PLACEMENT_3D ( 'NONE', #6, #70, #202 ) ;
#120 = CC_DESIGN_APPROVAL ( #28, ( #33 ) ) ;
#121 = DIRECTION ( 'NONE',  ( -3.491481338843133355E-15, 1.224646799147353207E-16, -1.000000000000000000 ) ) ;
#122 = CIRCLE ( 'NONE', #220, 0.8000000000000011546 ) ;
#123 = DIRECTION ( 'NONE',  ( -3.491481338843133355E-15, 1.224646799147353207E-16, -1.000000000000000000 ) ) ;
#124 = CC_DESIGN_PERSON_AND_ORGANIZATION_ASSIGNMENT ( #5, #112, ( #33 ) ) ;
#125 = PRODUCT_DEFINITION_SHAPE ( 'NONE', 'NONE',  #140 ) ;
#126 = VERTEX_POINT ( 'NONE', #159 ) ;
#127 = DIRECTION ( 'NONE',  ( 1.000000000000000000, 0.0000000000000000000, 0.0000000000000000000 ) ) ;
#128 = PLANE ( 'NONE',  #187 ) ;
#129 = DIRECTION ( 'NONE',  ( 0.0000000000000000000, 1.000000000000000000, 0.0000000000000000000 ) ) ;
#130 = COORDINATED_UNIVERSAL_TIME_OFFSET ( 1, 0, .AHEAD. ) ;
#131 = CLOSED_SHELL ( 'NONE', ( #58, #209, #35 ) ) ;
#132 = EDGE_LOOP ( 'NONE', ( #51 ) ) ;
#133 = CIRCLE ( 'NONE', #135, 0.9999999999999978906 ) ;
#134 = EDGE_LOOP ( 'NONE', ( #171 ) ) ;
#135 = AXIS2_PLACEMENT_3D ( 'NONE', #80, #9, #216 ) ;
#136 = ORIENTED_EDGE ( 'NONE', *, *, #99, .T. ) ;
#137 = EDGE_LOOP ( 'NONE', ( #221 ) ) ;
#139 = CARTESIAN_POINT ( 'NONE',  ( 1.319779946082704535E-13, -4.629164900776995227E-15, 37.79999999999999716 ) ) ;
#138 = PRODUCT ( '26183', '26183', '', ( #41 ) ) ;
#140 = PRODUCT_DEFINITION ( 'UNKNOWN', '', #116, #113 ) ;
#141 = CARTESIAN_POINT ( 'NONE',  ( 1.326762908760390423E-13, 5.999039130647368851E-33, 38.00000000000000000 ) ) ;
#142 = FACE_BOUND ( 'NONE', #132, .T. ) ;
#143 = CALENDAR_DATE ( 2021, 7, 10 ) ;
#144 = CC_DESIGN_DATE_AND_TIME_ASSIGNMENT ( #10, #164, ( #140 ) ) ;
#145 = APPROVAL_STATUS ( 'not_yet_approved' ) ;
#146 = DIRECTION ( 'NONE',  ( -3.491481338843133355E-15, 1.224646799147353207E-16, -1.000000000000000000 ) ) ;
#147 = CALENDAR_DATE ( 2021, 7, 10 ) ;
#148 = APPROVAL_DATE_TIME ( #195, #186 ) ;
#149 = ADVANCED_FACE ( 'NONE', ( #49, #111 ), #185, .T. ) ;
#150 = CC_DESIGN_APPROVAL ( #8, ( #116 ) ) ;
#151 = PERSON_AND_ORGANIZATION_ROLE ( 'creator' ) ;
#152 = APPLICATION_CONTEXT ( 'configuration controlled 3d designs of mechanical parts and assemblies' ) ;
#153 = FACE_OUTER_BOUND ( 'NONE', #137, .T. ) ;
#154 = CC_DESIGN_PERSON_AND_ORGANIZATION_ASSIGNMENT ( #78, #151, ( #116 ) ) ;
#155 = CC_DESIGN_SECURITY_CLASSIFICATION ( #33, ( #116 ) ) ;
#156 = AXIS2_PLACEMENT_3D ( 'NONE', #210, #121, #27 ) ;
#157 = ORIENTED_EDGE ( 'NONE', *, *, #60, .T. ) ;
#158 = DIRECTION ( 'NONE',  ( -4.232813064587360736E-31, -1.000000000000000000, -1.191430958775287814E-16 ) ) ;
#159 = CARTESIAN_POINT ( 'NONE',  ( 4.244204414264756366E-14, 0.9999999999999963363, 12.15588457268120415 ) ) ;
#160 = CARTESIAN_POINT ( 'NONE',  ( 1.326762908760390423E-13, -4.653657836759941941E-15, 38.00000000000000000 ) ) ;
#161 = AXIS2_PLACEMENT_3D ( 'NONE', #107, #176, #19 ) ;
#162 = CARTESIAN_POINT ( 'NONE',  ( 1.319779946082704535E-13, 0.9999999999999963363, 37.79999999999999716 ) ) ;
#163 = FACE_OUTER_BOUND ( 'NONE', #173, .T. ) ;
#164 = DATE_TIME_ROLE ( 'creation_date' ) ;
#165 = APPROVAL_ROLE ( '' ) ;
#166 = AXIS2_PLACEMENT_3D ( 'NONE', #101, #217, #129 ) ;
#167 = CC_DESIGN_DATE_AND_TIME_ASSIGNMENT ( #199, #168, ( #33 ) ) ;
#168 = DATE_TIME_ROLE ( 'classification_date' ) ;
#169 = DIRECTION ( 'NONE',  ( 3.491481338843133355E-15, -1.224646799147353207E-16, 1.000000000000000000 ) ) ;
#170 = CC_DESIGN_PERSON_AND_ORGANIZATION_ASSIGNMENT ( #98, #196, ( #116 ) ) ;
#171 = ORIENTED_EDGE ( 'NONE', *, *, #26, .T. ) ;
#172 = ADVANCED_FACE ( 'NONE', ( #30, #153 ), #54, .T. ) ;
#173 = EDGE_LOOP ( 'NONE', ( #190 ) ) ;
#174 = AXIS2_PLACEMENT_3D ( 'NONE', #94, #169, #13 ) ;
#175 = DIRECTION ( 'NONE',  ( -4.275831445896958607E-31, -1.000000000000000000, -1.224646799147353207E-16 ) ) ;
#176 = DIRECTION ( 'NONE',  ( 3.491481338843133355E-15, -1.224646799147353207E-16, 1.000000000000000000 ) ) ;
#177 = APPLICATION_PROTOCOL_DEFINITION ( 'international standard', 'config_control_design', 1994, #211 ) ;
#178 = EDGE_CURVE ( 'NONE', #126, #126, #133, .T. ) ;
#179 = DIRECTION ( 'NONE',  ( -3.491481338843133355E-15, 1.224646799147353207E-16, -1.000000000000000000 ) ) ;
#180 = COORDINATED_UNIVERSAL_TIME_OFFSET ( 1, 0, .AHEAD. ) ;
#181 = DIRECTION ( 'NONE',  ( -3.491481338843133355E-15, 1.224646799147353207E-16, -1.000000000000000000 ) ) ;
#182 = APPROVAL_DATE_TIME ( #106, #28 ) ;
#183 = DIRECTION ( 'NONE',  ( -3.491481338843133355E-15, 1.224646799147353207E-16, -1.000000000000000000 ) ) ;
#184 = ADVANCED_FACE ( 'NONE', ( #72 ), #128, .F. ) ;
#185 = CYLINDRICAL_SURFACE ( 'NONE', #156, 0.9999999999999993339 ) ;
#186 = APPROVAL ( #20, 'UNSPECIFIED' ) ;
#187 = AXIS2_PLACEMENT_3D ( 'NONE', #141, #181, #91 ) ;
#188 = SHAPE_DEFINITION_REPRESENTATION ( #125, #66 ) ;
#189 = PLANE ( 'NONE',  #21 ) ;
#190 = ORIENTED_EDGE ( 'NONE', *, *, #115, .T. ) ;
#191 = CONICAL_SURFACE ( 'NONE', #87, 0.8000000000000011546, 0.7853981633974507215 ) ;
#192 = AXIS2_PLACEMENT_3D ( 'NONE', #139, #146, #25 ) ;
#193 = AXIS2_PLACEMENT_3D ( 'NONE', #57, #123, #56 ) ;
#194 = PLANE ( 'NONE',  #161 ) ;
#195 = DATE_AND_TIME ( #143, #55 ) ;
#196 = PERSON_AND_ORGANIZATION_ROLE ( 'design_supplier' ) ;
#197 = CIRCLE ( 'NONE', #166, 0.9099999999999957012 ) ;
#198 = APPLICATION_PROTOCOL_DEFINITION ( 'international standard', 'config_control_design', 1994, #152 ) ;
#199 = DATE_AND_TIME ( #93, #102 ) ;
#200 = DATE_AND_TIME ( #147, #16 ) ;
#201 = CARTESIAN_POINT ( 'NONE',  ( 4.189777606611760026E-14, 0.9099999999999941469, 12.00000000000000000 ) ) ;
#202 = DIRECTION ( 'NONE',  ( 4.232813064587360736E-31, 1.000000000000000000, 1.191430958775287814E-16 ) ) ;
#203 = PERSON ( 'UNSPECIFIED', 'UNSPECIFIED', 'UNSPECIFIED', ('UNSPECIFIED'), ('UNSPECIFIED'), ('UNSPECIFIED') ) ;
#204 = ADVANCED_FACE ( 'NONE', ( #163 ), #194, .F. ) ;
#205 = COORDINATED_UNIVERSAL_TIME_OFFSET ( 1, 0, .AHEAD. ) ;
#206 = EDGE_LOOP ( 'NONE', ( #157 ) ) ;
#207 = APPROVAL_PERSON_ORGANIZATION ( #89, #8, #44 ) ;
#208 = EDGE_LOOP ( 'NONE', ( #67 ) ) ;
#209 = ADVANCED_FACE ( 'NONE', ( #86, #42 ), #48, .T. ) ;
#210 = CARTESIAN_POINT ( 'NONE',  ( 0.0000000000000000000, 0.0000000000000000000, 0.0000000000000000000 ) ) ;
#211 = APPLICATION_CONTEXT ( 'configuration controlled 3d designs of mechanical parts and assemblies' ) ;
#212 = DIRECTION ( 'NONE',  ( 0.0000000000000000000, 1.000000000000000000, 0.0000000000000000000 ) ) ;
#213 = VERTEX_POINT ( 'NONE', #59 ) ;
#214 =( NAMED_UNIT ( * ) PLANE_ANGLE_UNIT ( ) SI_UNIT ( $, .RADIAN. ) );
#215 = APPROVAL_PERSON_ORGANIZATION ( #46, #28, #165 ) ;
#216 = DIRECTION ( 'NONE',  ( 0.0000000000000000000, 1.000000000000000000, 0.0000000000000000000 ) ) ;
#217 = DIRECTION ( 'NONE',  ( -3.491481338843133355E-15, 1.224646799147353207E-16, -1.000000000000000000 ) ) ;
#218 = ORIENTED_EDGE ( 'NONE', *, *, #99, .F. ) ;
#219 = UNCERTAINTY_MEASURE_WITH_UNIT (LENGTH_MEASURE( 1.000000000000000082E-05 ), #90, 'distance_accuracy_value', 'NONE');
#220 = AXIS2_PLACEMENT_3D ( 'NONE', #4, #1, #85 ) ;
#221 = ORIENTED_EDGE ( 'NONE', *, *, #178, .T. ) ;
#222 = CC_DESIGN_APPROVAL ( #186, ( #140 ) ) ;
#223 = CARTESIAN_POINT ( 'NONE',  ( 1.909083211108226574E-15, -6.696162507814798613E-17, 0.5467831633150821435 ) ) ;
ENDSEC;
END-ISO-10303-21;
