ISO-10303-21;
HEADER;
FILE_DESCRIPTION (( 'STEP AP203' ),
    '1' );
FILE_NAME ('261.step',
    '2021-09-03T07:21:37',
    ( '' ),
    ( '' ),
    'SwSTEP 2.0',
    'SolidWorks 2019',
    '' );
FILE_SCHEMA (( 'CONFIG_CONTROL_DESIGN' ));
ENDSEC;

DATA;
#1 = FACE_OUTER_BOUND ( 'NONE', #337, .T. ) ;
#2 = CC_DESIGN_PERSON_AND_ORGANIZATION_ASSIGNMENT ( #265, #116, ( #106 ) ) ;
#3 = AXIS2_PLACEMENT_3D ( 'NONE', #335, #18, #229 ) ;
#4 = APPLICATION_CONTEXT ( 'configuration controlled 3d designs of mechanical parts and assemblies' ) ;
#5 = CC_DESIGN_PERSON_AND_ORGANIZATION_ASSIGNMENT ( #36, #89, ( #182 ) ) ;
#6 = APPLICATION_PROTOCOL_DEFINITION ( 'international standard', 'config_control_design', 1994, #4 ) ;
#7 = ORIENTED_EDGE ( 'NONE', *, *, #293, .F. ) ;
#8 = AXIS2_PLACEMENT_3D ( 'NONE', #146, #123, #104 ) ;
#9 = APPROVAL_DATE_TIME ( #187, #230 ) ;
#10 = LINE ( 'NONE', #74, #334 ) ;
#11 = DATE_TIME_ROLE ( 'creation_date' ) ;
#12 = ORIENTED_EDGE ( 'NONE', *, *, #194, .F. ) ;
#13 = CARTESIAN_POINT ( 'NONE',  ( 6.606553772908188886E-14, -0.6249999999999982236, 8.000000000000000000 ) ) ;
#14 = CIRCLE ( 'NONE', #285, 0.6250000000000000000 ) ;
#15 = ORIENTED_EDGE ( 'NONE', *, *, #95, .T. ) ;
#16 = DIRECTION ( 'NONE',  ( 0.0000000000000000000, 1.000000000000000000, 0.0000000000000000000 ) ) ;
#17 = ORIENTED_EDGE ( 'NONE', *, *, #242, .F. ) ;
#18 = DIRECTION ( 'NONE',  ( 3.491481338843133355E-15, -1.224646799147353207E-16, 1.000000000000000000 ) ) ;
#19 = ORIENTED_EDGE ( 'NONE', *, *, #108, .F. ) ;
#20 = CIRCLE ( 'NONE', #205, 0.6249999999999973355 ) ;
#21 = APPROVAL_PERSON_ORGANIZATION ( #266, #306, #303 ) ;
#22 = EDGE_LOOP ( 'NONE', ( #99, #209, #251 ) ) ;
#23 = CARTESIAN_POINT ( 'NONE',  ( 2.793185071074506684E-14, 4.686749320818270129E-33, 8.000000000000000000 ) ) ;
#24 = EDGE_LOOP ( 'NONE', ( #97, #7 ) ) ;
#25 = ORIENTED_EDGE ( 'NONE', *, *, #194, .T. ) ;
#26 = CARTESIAN_POINT ( 'NONE',  ( 1.044595859883649100E-13, -0.4250000000000037081, 30.00000000000000000 ) ) ;
#27 = CONICAL_SURFACE ( 'NONE', #224, 0.4250000000000000444, 0.7853981633974512766 ) ;
#28 = DIRECTION ( 'NONE',  ( 0.0000000000000000000, 1.000000000000000000, 0.0000000000000000000 ) ) ;
#29 = EDGE_LOOP ( 'NONE', ( #253, #181 ) ) ;
#30 = CC_DESIGN_DATE_AND_TIME_ASSIGNMENT ( #298, #69, ( #127 ) ) ;
#31 = LINE ( 'NONE', #329, #324 ) ;
#32 = ORIENTED_EDGE ( 'NONE', *, *, #269, .T. ) ;
#33 = CALENDAR_DATE ( 2021, 3, 9 ) ;
#34 = VECTOR ( 'NONE', #87, 1000.000000000000000 ) ;
#35 = CARTESIAN_POINT ( 'NONE',  ( 6.606553772908175002E-14, -0.6250000000000037748, 29.80000000000000071 ) ) ;
#36 = PERSON_AND_ORGANIZATION ( #153, #62 ) ;
#37 = ORIENTED_EDGE ( 'NONE', *, *, #73, .T. ) ;
#38 = CARTESIAN_POINT ( 'NONE',  ( 1.387723949059503931E-15, 0.6249999999999963363, 0.3755378868922272240 ) ) ;
#39 = DIRECTION ( 'NONE',  ( 4.275831445896958607E-31, 1.000000000000000000, 1.224646799147353207E-16 ) ) ;
#40 = CARTESIAN_POINT ( 'NONE',  ( 2.793185071074506684E-14, 4.686749320818270129E-33, 8.000000000000000000 ) ) ;
#41 = CIRCLE ( 'NONE', #61, 0.6249999999999973355 ) ;
#42 = CONICAL_SURFACE ( 'NONE', #318, 0.4250000000000000444, 0.7853981633974512766 ) ;
#43 = APPLICATION_PROTOCOL_DEFINITION ( 'international standard', 'config_control_design', 1994, #327 ) ;
#44 = CARTESIAN_POINT ( 'NONE',  ( 1.047444401652940007E-13, -3.673940397442059178E-15, 30.00000000000000000 ) ) ;
#45 = VERTEX_POINT ( 'NONE', #296 ) ;
#46 = CARTESIAN_POINT ( 'NONE',  ( 0.0000000000000000000, 0.0000000000000000000, 0.0000000000000000000 ) ) ;
#47 = CALENDAR_DATE ( 2021, 3, 9 ) ;
#48 = VERTEX_POINT ( 'NONE', #143 ) ;
#49 = CARTESIAN_POINT ( 'NONE',  ( 1.311183524112794463E-15, -4.599012711411267491E-17, 0.3755378868922271685 ) ) ;
#50 = CARTESIAN_POINT ( 'NONE',  ( 0.0000000000000000000, 0.0000000000000000000, 0.0000000000000000000 ) ) ;
#51 = AXIS2_PLACEMENT_3D ( 'NONE', #82, #232, #228 ) ;
#52 = DIRECTION ( 'NONE',  ( -3.081487911019595319E-31, -1.000000000000000000, -8.673617379884086008E-17 ) ) ;
#53 = FACE_OUTER_BOUND ( 'NONE', #22, .T. ) ;
#54 = CIRCLE ( 'NONE', #197, 0.4250000000000000444 ) ;
#55 = EDGE_CURVE ( 'NONE', #76, #262, #41, .T. ) ;
#56 = CC_DESIGN_SECURITY_CLASSIFICATION ( #127, ( #106 ) ) ;
#57 = ORIENTED_EDGE ( 'NONE', *, *, #139, .T. ) ;
#58 = DIRECTION ( 'NONE',  ( 0.0000000000000000000, 1.000000000000000000, 0.0000000000000000000 ) ) ;
#59 = COORDINATED_UNIVERSAL_TIME_OFFSET ( 1, 0, .AHEAD. ) ;
#60 = SECURITY_CLASSIFICATION_LEVEL ( 'unclassified' ) ;
#61 = AXIS2_PLACEMENT_3D ( 'NONE', #219, #66, #16 ) ;
#62 = ORGANIZATION ( 'UNSPECIFIED', 'UNSPECIFIED', '' ) ;
#63 = DATE_AND_TIME ( #239, #91 ) ;
#64 = MANIFOLD_SOLID_BREP ( 'Corps-Déplacer/Copier1[2]', #249 ) ;
#65 = DIRECTION ( 'NONE',  ( 0.0000000000000000000, 1.000000000000000000, 0.0000000000000000000 ) ) ;
#66 = DIRECTION ( 'NONE',  ( -3.491481338843133355E-15, 1.224646799147353207E-16, -1.000000000000000000 ) ) ;
#67 = AXIS2_PLACEMENT_3D ( 'NONE', #156, #172, #183 ) ;
#68 = EDGE_CURVE ( 'NONE', #125, #48, #257, .T. ) ;
#69 = DATE_TIME_ROLE ( 'classification_date' ) ;
#70 = DATE_AND_TIME ( #47, #114 ) ;
#71 = DIRECTION ( 'NONE',  ( -2.468850131082257455E-15, 0.7071067811865497932, -0.7071067811865453523 ) ) ;
#72 = EDGE_CURVE ( 'NONE', #226, #222, #188, .T. ) ;
#73 = EDGE_CURVE ( 'NONE', #203, #45, #10, .T. ) ;
#74 = CARTESIAN_POINT ( 'NONE',  ( 1.047444401652940007E-13, 0.4249999999999963252, 30.00000000000000000 ) ) ;
#75 = PLANE ( 'NONE',  #160 ) ;
#76 = VERTEX_POINT ( 'NONE', #300 ) ;
#77 = CIRCLE ( 'NONE', #263, 0.6249999999999963363 ) ;
#78 = ADVANCED_BREP_SHAPE_REPRESENTATION ( '261', ( #169, #64, #314 ), #176 ) ;
#79 = CYLINDRICAL_SURFACE ( 'NONE', #67, 0.6249999999999985567 ) ;
#80 = APPROVAL_DATE_TIME ( #70, #306 ) ;
#81 = ADVANCED_FACE ( 'NONE', ( #100 ), #170, .T. ) ;
#82 = CARTESIAN_POINT ( 'NONE',  ( 0.0000000000000000000, 0.0000000000000000000, 0.0000000000000000000 ) ) ;
#83 = ADVANCED_FACE ( 'NONE', ( #273 ), #27, .T. ) ;
#84 = LINE ( 'NONE', #234, #175 ) ;
#85 = DESIGN_CONTEXT ( 'detailed design', #4, 'design' ) ;
#86 = VECTOR ( 'NONE', #326, 1000.000000000000000 ) ;
#87 = DIRECTION ( 'NONE',  ( -3.491481338843133355E-15, 1.224646799147353207E-16, -1.000000000000000000 ) ) ;
#88 = DIRECTION ( 'NONE',  ( 0.0000000000000000000, 0.0000000000000000000, 1.000000000000000000 ) ) ;
#89 = PERSON_AND_ORGANIZATION_ROLE ( 'design_owner' ) ;
#90 = VECTOR ( 'NONE', #240, 999.9999999999998863 ) ;
#91 = LOCAL_TIME ( 9, 21, 37.00000000000000000, #322 ) ;
#92 = ORIENTED_EDGE ( 'NONE', *, *, #108, .T. ) ;
#93 = CARTESIAN_POINT ( 'NONE',  ( 1.047444401652940007E-13, -3.673940397442059178E-15, 30.00000000000000000 ) ) ;
#94 = DIRECTION ( 'NONE',  ( -4.275831445896958607E-31, -1.000000000000000000, -1.224646799147353207E-16 ) ) ;
#95 = EDGE_CURVE ( 'NONE', #203, #196, #54, .T. ) ;
#96 =( NAMED_UNIT ( * ) PLANE_ANGLE_UNIT ( ) SI_UNIT ( $, .RADIAN. ) );
#97 = ORIENTED_EDGE ( 'NONE', *, *, #55, .F. ) ;
#98 = COORDINATED_UNIVERSAL_TIME_OFFSET ( 1, 0, .AHEAD. ) ;
#99 = ORIENTED_EDGE ( 'NONE', *, *, #269, .F. ) ;
#100 = FACE_OUTER_BOUND ( 'NONE', #24, .T. ) ;
#101 = CIRCLE ( 'NONE', #289, 0.6249999999999963363 ) ;
#102 = ORIENTED_EDGE ( 'NONE', *, *, #141, .T. ) ;
#103 = DIRECTION ( 'NONE',  ( -3.491481338843133355E-15, 1.224646799147353207E-16, -1.000000000000000000 ) ) ;
#104 = DIRECTION ( 'NONE',  ( 0.0000000000000000000, 1.000000000000000000, 0.0000000000000000000 ) ) ;
#105 = CARTESIAN_POINT ( 'NONE',  ( 2.793185071074506684E-14, -9.797174393178825657E-16, 8.000000000000000000 ) ) ;
#106 = PRODUCT_DEFINITION_FORMATION_WITH_SPECIFIED_SOURCE ( 'ANY', '', #182, .NOT_KNOWN. ) ;
#107 = DIRECTION ( 'NONE',  ( -3.491481338843133355E-15, 1.224646799147353207E-16, -1.000000000000000000 ) ) ;
#108 = EDGE_CURVE ( 'NONE', #262, #237, #168, .T. ) ;
#109 = CARTESIAN_POINT ( 'NONE',  ( 1.047444401652940007E-13, 0.4249999999999963252, 30.00000000000000000 ) ) ;
#110 = ORIENTED_EDGE ( 'NONE', *, *, #129, .T. ) ;
#111 = CARTESIAN_POINT ( 'NONE',  ( 1.469805754237561922E-14, -0.6249999999999982236, 8.000000000000000000 ) ) ;
#112 = CARTESIAN_POINT ( 'NONE',  ( 1.047964876542577587E-13, -0.4250000000000037081, 30.00000000000000000 ) ) ;
#113 = AXIS2_PLACEMENT_3D ( 'NONE', #40, #270, #94 ) ;
#114 = LOCAL_TIME ( 9, 21, 37.00000000000000000, #246 ) ;
#115 = ORIENTED_EDGE ( 'NONE', *, *, #129, .F. ) ;
#116 = PERSON_AND_ORGANIZATION_ROLE ( 'creator' ) ;
#117 = ADVANCED_FACE ( 'NONE', ( #321 ), #275, .T. ) ;
#118 = DIRECTION ( 'NONE',  ( -3.491481338843133355E-15, 1.224646799147353207E-16, -1.000000000000000000 ) ) ;
#119 = DIRECTION ( 'NONE',  ( 0.0000000000000000000, 1.000000000000000000, 0.0000000000000000000 ) ) ;
#120 = PERSON_AND_ORGANIZATION ( #153, #62 ) ;
#121 = PRODUCT_DEFINITION_SHAPE ( 'NONE', 'NONE',  #220 ) ;
#122 = CIRCLE ( 'NONE', #308, 0.6249999999999973355 ) ;
#123 = DIRECTION ( 'NONE',  ( -3.491481338843133355E-15, 1.224646799147353207E-16, -1.000000000000000000 ) ) ;
#124 = DIRECTION ( 'NONE',  ( 1.798245827342160317E-15, -0.8571673007021098911, 0.5150380749100582634 ) ) ;
#125 = VERTEX_POINT ( 'NONE', #13 ) ;
#126 = AXIS2_PLACEMENT_3D ( 'NONE', #50, #282, #149 ) ;
#127 = SECURITY_CLASSIFICATION ( '', '', #60 ) ;
#128 = CARTESIAN_POINT ( 'NONE',  ( 1.040461438975253740E-13, -3.649447461459112464E-15, 29.80000000000000071 ) ) ;
#129 = EDGE_CURVE ( 'NONE', #196, #203, #271, .T. ) ;
#130 = VECTOR ( 'NONE', #177, 1000.000000000000114 ) ;
#131 = DIRECTION ( 'NONE',  ( 3.491481338843133355E-15, -1.224646799147353207E-16, 1.000000000000000000 ) ) ;
#132 = ORIENTED_EDGE ( 'NONE', *, *, #55, .T. ) ;
#133 = EDGE_LOOP ( 'NONE', ( #328, #110, #37, #214 ) ) ;
#134 = DIRECTION ( 'NONE',  ( -3.491481338843133355E-15, 1.224646799147353207E-16, -1.000000000000000000 ) ) ;
#135 = LINE ( 'NONE', #199, #215 ) ;
#136 = AXIS2_PLACEMENT_3D ( 'NONE', #128, #107, #260 ) ;
#137 = PLANE ( 'NONE',  #325 ) ;
#138 = COORDINATED_UNIVERSAL_TIME_OFFSET ( 1, 0, .AHEAD. ) ;
#139 = EDGE_CURVE ( 'NONE', #45, #299, #14, .T. ) ;
#140 = ORIENTED_EDGE ( 'NONE', *, *, #256, .T. ) ;
#141 = EDGE_CURVE ( 'NONE', #237, #222, #101, .T. ) ;
#142 = PERSON_AND_ORGANIZATION ( #153, #62 ) ;
#143 = CARTESIAN_POINT ( 'NONE',  ( 2.793185071074506684E-14, 0.6249999999999963363, 8.000000000000000000 ) ) ;
#144 = APPROVAL_STATUS ( 'not_yet_approved' ) ;
#145 = MECHANICAL_CONTEXT ( 'NONE', #327, 'mechanical' ) ;
#146 = CARTESIAN_POINT ( 'NONE',  ( 2.793185071074506684E-14, -9.797174393178825657E-16, 8.000000000000000000 ) ) ;
#147 = DIRECTION ( 'NONE',  ( -3.491481338843133355E-15, 1.224646799147353207E-16, -1.000000000000000000 ) ) ;
#148 = FACE_OUTER_BOUND ( 'NONE', #178, .T. ) ;
#149 = DIRECTION ( 'NONE',  ( 4.275831445896958607E-31, 1.000000000000000000, 1.224646799147352961E-16 ) ) ;
#150 = CC_DESIGN_PERSON_AND_ORGANIZATION_ASSIGNMENT ( #142, #291, ( #220 ) ) ;
#151 = CC_DESIGN_PERSON_AND_ORGANIZATION_ASSIGNMENT ( #167, #274, ( #127 ) ) ;
#152 = ORIENTED_EDGE ( 'NONE', *, *, #281, .T. ) ;
#153 = PERSON ( 'UNSPECIFIED', 'UNSPECIFIED', 'UNSPECIFIED', ('UNSPECIFIED'), ('UNSPECIFIED'), ('UNSPECIFIED') ) ;
#154 = CYLINDRICAL_SURFACE ( 'NONE', #126, 0.6249999999999968914 ) ;
#155 = FACE_OUTER_BOUND ( 'NONE', #292, .T. ) ;
#156 = CARTESIAN_POINT ( 'NONE',  ( 0.0000000000000000000, 0.0000000000000000000, 0.0000000000000000000 ) ) ;
#157 = FACE_OUTER_BOUND ( 'NONE', #332, .T. ) ;
#158 = ORIENTED_EDGE ( 'NONE', *, *, #258, .F. ) ;
#159 = DIRECTION ( 'NONE',  ( 1.000000000000000000, 0.0000000000000000000, 0.0000000000000000000 ) ) ;
#160 = AXIS2_PLACEMENT_3D ( 'NONE', #23, #272, #267 ) ;
#161 = CC_DESIGN_DATE_AND_TIME_ASSIGNMENT ( #63, #11, ( #220 ) ) ;
#162 = APPROVAL_ROLE ( '' ) ;
#163 = APPROVAL_STATUS ( 'not_yet_approved' ) ;
#164 = FACE_OUTER_BOUND ( 'NONE', #235, .T. ) ;
#165 = CIRCLE ( 'NONE', #136, 0.6250000000000000000 ) ;
#166 = LOCAL_TIME ( 9, 21, 37.00000000000000000, #59 ) ;
#167 = PERSON_AND_ORGANIZATION ( #153, #62 ) ;
#168 = LINE ( 'NONE', #212, #86 ) ;
#169 = MANIFOLD_SOLID_BREP ( 'Corps-Déplacer/Copier1[1]', #330 ) ;
#170 = PLANE ( 'NONE',  #113 ) ;
#171 = ADVANCED_FACE ( 'NONE', ( #1 ), #313, .T. ) ;
#172 = DIRECTION ( 'NONE',  ( -3.491481338843133355E-15, 1.224646799147353207E-16, -1.000000000000000000 ) ) ;
#173 = ORIENTED_EDGE ( 'NONE', *, *, #200, .T. ) ;
#174 = SHAPE_DEFINITION_REPRESENTATION ( #121, #78 ) ;
#175 = VECTOR ( 'NONE', #124, 1000.000000000000000 ) ;
#176 =( GEOMETRIC_REPRESENTATION_CONTEXT ( 3 ) GLOBAL_UNCERTAINTY_ASSIGNED_CONTEXT ( ( #247 ) ) GLOBAL_UNIT_ASSIGNED_CONTEXT ( ( #238, #96, #208 ) ) REPRESENTATION_CONTEXT ( 'NONE', 'WORKASPACE' ) );
#177 = DIRECTION ( 'NONE',  ( -2.382254525458708792E-15, -0.7071067811865495711, -0.7071067811865455743 ) ) ;
#178 = EDGE_LOOP ( 'NONE', ( #19, #180, #152, #286 ) ) ;
#179 = DIRECTION ( 'NONE',  ( -3.491481338843133355E-15, 1.224646799147353207E-16, -1.000000000000000000 ) ) ;
#180 = ORIENTED_EDGE ( 'NONE', *, *, #293, .T. ) ;
#181 = ORIENTED_EDGE ( 'NONE', *, *, #68, .T. ) ;
#182 = PRODUCT ( '261', '261', '', ( #145 ) ) ;
#183 = DIRECTION ( 'NONE',  ( 4.275831445896958607E-31, 1.000000000000000000, 1.224646799147353207E-16 ) ) ;
#184 = PERSON_AND_ORGANIZATION ( #153, #62 ) ;
#185 = AXIS2_PLACEMENT_3D ( 'NONE', #218, #103, #192 ) ;
#186 = ADVANCED_FACE ( 'NONE', ( #53 ), #297, .T. ) ;
#187 = DATE_AND_TIME ( #236, #225 ) ;
#188 = LINE ( 'NONE', #38, #90 ) ;
#189 = CALENDAR_DATE ( 2021, 3, 9 ) ;
#190 = LOCAL_TIME ( 9, 21, 37.00000000000000000, #98 ) ;
#191 = ORIENTED_EDGE ( 'NONE', *, *, #258, .T. ) ;
#192 = DIRECTION ( 'NONE',  ( 0.0000000000000000000, 1.000000000000000000, 0.0000000000000000000 ) ) ;
#193 = ADVANCED_FACE ( 'NONE', ( #155 ), #79, .T. ) ;
#194 = EDGE_CURVE ( 'NONE', #299, #125, #135, .T. ) ;
#195 = DIRECTION ( 'NONE',  ( -3.491481338843133355E-15, 1.224646799147353207E-16, -1.000000000000000000 ) ) ;
#196 = VERTEX_POINT ( 'NONE', #26 ) ;
#197 = AXIS2_PLACEMENT_3D ( 'NONE', #241, #245, #119 ) ;
#198 = LINE ( 'NONE', #112, #130 ) ;
#199 = CARTESIAN_POINT ( 'NONE',  ( 7.654042494670914712E-17, -0.6249999999999985567, -7.654042494670966481E-17 ) ) ;
#200 = EDGE_CURVE ( 'NONE', #299, #45, #165, .T. ) ;
#201 = CARTESIAN_POINT ( 'NONE',  ( 1.311183524112794463E-15, -4.599012711411267491E-17, 0.3755378868922271685 ) ) ;
#202 = CC_DESIGN_PERSON_AND_ORGANIZATION_ASSIGNMENT ( #184, #288, ( #106 ) ) ;
#203 = VERTEX_POINT ( 'NONE', #109 ) ;
#204 = ORIENTED_EDGE ( 'NONE', *, *, #73, .F. ) ;
#205 = AXIS2_PLACEMENT_3D ( 'NONE', #255, #287, #58 ) ;
#206 = LINE ( 'NONE', #315, #34 ) ;
#207 = DATE_AND_TIME ( #33, #166 ) ;
#208 =( NAMED_UNIT ( * ) SI_UNIT ( $, .STERADIAN. ) SOLID_ANGLE_UNIT ( ) );
#209 = ORIENTED_EDGE ( 'NONE', *, *, #72, .T. ) ;
#210 = DIRECTION ( 'NONE',  ( -3.491481338843133355E-15, 1.224646799147353207E-16, -1.000000000000000000 ) ) ;
#211 = CARTESIAN_POINT ( 'NONE',  ( 1.047444401652940007E-13, 3.186989538156391994E-33, 30.00000000000000000 ) ) ;
#212 = CARTESIAN_POINT ( 'NONE',  ( 7.654042494670892525E-17, -0.6249999999999968914, -7.654042494670945527E-17 ) ) ;
#213 = APPROVAL_STATUS ( 'not_yet_approved' ) ;
#214 = ORIENTED_EDGE ( 'NONE', *, *, #200, .F. ) ;
#215 = VECTOR ( 'NONE', #279, 1000.000000000000000 ) ;
#216 = APPROVAL_PERSON_ORGANIZATION ( #120, #221, #162 ) ;
#217 = ORIENTED_EDGE ( 'NONE', *, *, #139, .F. ) ;
#218 = CARTESIAN_POINT ( 'NONE',  ( 1.047444401652940007E-13, -3.673940397442059178E-15, 30.00000000000000000 ) ) ;
#219 = CARTESIAN_POINT ( 'NONE',  ( 2.793185071074506684E-14, -9.797174393178825657E-16, 8.000000000000000000 ) ) ;
#220 = PRODUCT_DEFINITION ( 'UNKNOWN', '', #106, #85 ) ;
#221 = APPROVAL ( #213, 'UNSPECIFIED' ) ;
#222 = VERTEX_POINT ( 'NONE', #311 ) ;
#223 = DIRECTION ( 'NONE',  ( 3.081487911019595319E-31, 1.000000000000000000, 8.673617379884086008E-17 ) ) ;
#224 = AXIS2_PLACEMENT_3D ( 'NONE', #44, #210, #320 ) ;
#225 = LOCAL_TIME ( 9, 21, 37.00000000000000000, #138 ) ;
#226 = VERTEX_POINT ( 'NONE', #312 ) ;
#227 = EDGE_LOOP ( 'NONE', ( #132, #92, #295, #233 ) ) ;
#228 = DIRECTION ( 'NONE',  ( 4.275831445896958607E-31, 1.000000000000000000, 1.224646799147352961E-16 ) ) ;
#229 = DIRECTION ( 'NONE',  ( -3.081487911019595319E-31, -1.000000000000000000, -8.673617379884086008E-17 ) ) ;
#230 = APPROVAL ( #163, 'UNSPECIFIED' ) ;
#231 = ADVANCED_FACE ( 'NONE', ( #148 ), #154, .T. ) ;
#232 = DIRECTION ( 'NONE',  ( -3.491481338843133355E-15, 1.224646799147353207E-16, -1.000000000000000000 ) ) ;
#233 = ORIENTED_EDGE ( 'NONE', *, *, #281, .F. ) ;
#234 = CARTESIAN_POINT ( 'NONE',  ( 1.311183524112794266E-15, -0.6249999999999963363, 0.3755378868922271129 ) ) ;
#235 = EDGE_LOOP ( 'NONE', ( #307, #115 ) ) ;
#236 = CALENDAR_DATE ( 2021, 3, 9 ) ;
#237 = VERTEX_POINT ( 'NONE', #261 ) ;
#238 =( LENGTH_UNIT ( ) NAMED_UNIT ( * ) SI_UNIT ( .MILLI., .METRE. ) );
#239 = CALENDAR_DATE ( 2021, 3, 9 ) ;
#240 = DIRECTION ( 'NONE',  ( 1.903218546456022717E-15, 0.8571673007021097801, 0.5150380749100585964 ) ) ;
#241 = CARTESIAN_POINT ( 'NONE',  ( 1.047444401652940007E-13, -3.673940397442059178E-15, 30.00000000000000000 ) ) ;
#242 = EDGE_CURVE ( 'NONE', #48, #125, #20, .T. ) ;
#243 = PRODUCT_RELATED_PRODUCT_CATEGORY ( 'detail', '', ( #182 ) ) ;
#244 = APPROVAL_ROLE ( '' ) ;
#245 = DIRECTION ( 'NONE',  ( -3.491481338843133355E-15, 1.224646799147353207E-16, -1.000000000000000000 ) ) ;
#246 = COORDINATED_UNIVERSAL_TIME_OFFSET ( 1, 0, .AHEAD. ) ;
#247 = UNCERTAINTY_MEASURE_WITH_UNIT (LENGTH_MEASURE( 1.000000000000000082E-05 ), #238, 'distance_accuracy_value', 'NONE');
#248 = DIRECTION ( 'NONE',  ( 4.275831445896958607E-31, 1.000000000000000000, 1.224646799147353207E-16 ) ) ;
#249 = CLOSED_SHELL ( 'NONE', ( #250, #186, #171, #231, #81 ) ) ;
#250 = ADVANCED_FACE ( 'NONE', ( #333 ), #278, .T. ) ;
#251 = ORIENTED_EDGE ( 'NONE', *, *, #283, .T. ) ;
#252 = DIRECTION ( 'NONE',  ( -3.491481338843133355E-15, 1.224646799147353207E-16, -1.000000000000000000 ) ) ;
#253 = ORIENTED_EDGE ( 'NONE', *, *, #242, .T. ) ;
#254 = FACE_OUTER_BOUND ( 'NONE', #29, .T. ) ;
#255 = CARTESIAN_POINT ( 'NONE',  ( 2.793185071074506684E-14, -9.797174393178825657E-16, 8.000000000000000000 ) ) ;
#256 = EDGE_CURVE ( 'NONE', #196, #299, #198, .T. ) ;
#257 = CIRCLE ( 'NONE', #8, 0.6249999999999973355 ) ;
#258 = EDGE_CURVE ( 'NONE', #45, #48, #31, .T. ) ;
#259 = CC_DESIGN_APPROVAL ( #221, ( #106 ) ) ;
#260 = DIRECTION ( 'NONE',  ( 0.0000000000000000000, 1.000000000000000000, 0.0000000000000000000 ) ) ;
#261 = CARTESIAN_POINT ( 'NONE',  ( 1.311183524112794266E-15, -0.6249999999999963363, 0.3755378868922271129 ) ) ;
#262 = VERTEX_POINT ( 'NONE', #111 ) ;
#263 = AXIS2_PLACEMENT_3D ( 'NONE', #49, #252, #223 ) ;
#264 = APPROVAL_PERSON_ORGANIZATION ( #319, #230, #244 ) ;
#265 = PERSON_AND_ORGANIZATION ( #153, #62 ) ;
#266 = PERSON_AND_ORGANIZATION ( #153, #62 ) ;
#267 = DIRECTION ( 'NONE',  ( -4.275831445896958607E-31, -1.000000000000000000, -1.224646799147353207E-16 ) ) ;
#268 = DIRECTION ( 'NONE',  ( -3.491481338843133355E-15, 1.224646799147353207E-16, -1.000000000000000000 ) ) ;
#269 = EDGE_CURVE ( 'NONE', #226, #237, #84, .T. ) ;
#270 = DIRECTION ( 'NONE',  ( 3.491481338843133355E-15, -1.224646799147353207E-16, 1.000000000000000000 ) ) ;
#271 = CIRCLE ( 'NONE', #185, 0.4250000000000000444 ) ;
#272 = DIRECTION ( 'NONE',  ( 3.491481338843133355E-15, -1.224646799147353207E-16, 1.000000000000000000 ) ) ;
#273 = FACE_OUTER_BOUND ( 'NONE', #133, .T. ) ;
#274 = PERSON_AND_ORGANIZATION_ROLE ( 'classification_officer' ) ;
#275 = CYLINDRICAL_SURFACE ( 'NONE', #304, 0.6249999999999985567 ) ;
#276 = AXIS2_PLACEMENT_3D ( 'NONE', #284, #131, #52 ) ;
#277 = CC_DESIGN_APPROVAL ( #306, ( #127 ) ) ;
#278 = CYLINDRICAL_SURFACE ( 'NONE', #51, 0.6249999999999968914 ) ;
#279 = DIRECTION ( 'NONE',  ( -3.491481338843133355E-15, 1.224646799147353207E-16, -1.000000000000000000 ) ) ;
#280 = ORIENTED_EDGE ( 'NONE', *, *, #68, .F. ) ;
#281 = EDGE_CURVE ( 'NONE', #76, #222, #206, .T. ) ;
#282 = DIRECTION ( 'NONE',  ( -3.491481338843133355E-15, 1.224646799147353207E-16, -1.000000000000000000 ) ) ;
#283 = EDGE_CURVE ( 'NONE', #222, #237, #77, .T. ) ;
#284 = CARTESIAN_POINT ( 'NONE',  ( 1.311183524112794463E-15, -4.599012711411267491E-17, 0.3755378868922271685 ) ) ;
#285 = AXIS2_PLACEMENT_3D ( 'NONE', #302, #179, #28 ) ;
#286 = ORIENTED_EDGE ( 'NONE', *, *, #141, .F. ) ;
#287 = DIRECTION ( 'NONE',  ( -3.491481338843133355E-15, 1.224646799147353207E-16, -1.000000000000000000 ) ) ;
#288 = PERSON_AND_ORGANIZATION_ROLE ( 'design_supplier' ) ;
#289 = AXIS2_PLACEMENT_3D ( 'NONE', #201, #134, #310 ) ;
#290 = CC_DESIGN_APPROVAL ( #230, ( #220 ) ) ;
#291 = PERSON_AND_ORGANIZATION_ROLE ( 'creator' ) ;
#292 = EDGE_LOOP ( 'NONE', ( #12, #173, #191, #280 ) ) ;
#293 = EDGE_CURVE ( 'NONE', #262, #76, #122, .T. ) ;
#294 = ADVANCED_FACE ( 'NONE', ( #254 ), #75, .F. ) ;
#295 = ORIENTED_EDGE ( 'NONE', *, *, #283, .F. ) ;
#296 = CARTESIAN_POINT ( 'NONE',  ( 1.040461438975253740E-13, 0.6249999999999963363, 29.80000000000000071 ) ) ;
#297 = CONICAL_SURFACE ( 'NONE', #3, 0.6249999999999963363, 1.029744258676649649 ) ;
#298 = DATE_AND_TIME ( #189, #190 ) ;
#299 = VERTEX_POINT ( 'NONE', #35 ) ;
#300 = CARTESIAN_POINT ( 'NONE',  ( 2.793185071074506684E-14, 0.6249999999999963363, 8.000000000000000000 ) ) ;
#301 = EDGE_LOOP ( 'NONE', ( #57, #25, #17, #158 ) ) ;
#302 = CARTESIAN_POINT ( 'NONE',  ( 1.040461438975253740E-13, -3.649447461459112464E-15, 29.80000000000000071 ) ) ;
#303 = APPROVAL_ROLE ( '' ) ;
#304 = AXIS2_PLACEMENT_3D ( 'NONE', #46, #147, #248 ) ;
#305 = DIRECTION ( 'NONE',  ( 0.0000000000000000000, 1.000000000000000000, 0.0000000000000000000 ) ) ;
#306 = APPROVAL ( #144, 'UNSPECIFIED' ) ;
#307 = ORIENTED_EDGE ( 'NONE', *, *, #95, .F. ) ;
#308 = AXIS2_PLACEMENT_3D ( 'NONE', #105, #195, #305 ) ;
#309 = ADVANCED_FACE ( 'NONE', ( #157 ), #42, .T. ) ;
#310 = DIRECTION ( 'NONE',  ( 3.081487911019595319E-31, 1.000000000000000000, 8.673617379884086008E-17 ) ) ;
#311 = CARTESIAN_POINT ( 'NONE',  ( 1.387723949059503931E-15, 0.6249999999999963363, 0.3755378868922272240 ) ) ;
#312 = CARTESIAN_POINT ( 'NONE',  ( 0.0000000000000000000, 0.0000000000000000000, 0.0000000000000000000 ) ) ;
#313 = CONICAL_SURFACE ( 'NONE', #276, 0.6249999999999963363, 1.029744258676649649 ) ;
#314 = AXIS2_PLACEMENT_3D ( 'NONE', #317, #88, #159 ) ;
#315 = CARTESIAN_POINT ( 'NONE',  ( 2.672394653685585773E-31, 0.6249999999999968914, 7.654042494670918410E-17 ) ) ;
#316 = APPROVAL_DATE_TIME ( #207, #221 ) ;
#317 = CARTESIAN_POINT ( 'NONE',  ( 0.0000000000000000000, 0.0000000000000000000, 0.0000000000000000000 ) ) ;
#318 = AXIS2_PLACEMENT_3D ( 'NONE', #93, #268, #65 ) ;
#319 = PERSON_AND_ORGANIZATION ( #153, #62 ) ;
#320 = DIRECTION ( 'NONE',  ( 0.0000000000000000000, 1.000000000000000000, 0.0000000000000000000 ) ) ;
#321 = FACE_OUTER_BOUND ( 'NONE', #301, .T. ) ;
#322 = COORDINATED_UNIVERSAL_TIME_OFFSET ( 1, 0, .AHEAD. ) ;
#323 = ORIENTED_EDGE ( 'NONE', *, *, #72, .F. ) ;
#324 = VECTOR ( 'NONE', #336, 1000.000000000000000 ) ;
#325 = AXIS2_PLACEMENT_3D ( 'NONE', #211, #118, #39 ) ;
#326 = DIRECTION ( 'NONE',  ( -3.491481338843133355E-15, 1.224646799147353207E-16, -1.000000000000000000 ) ) ;
#327 = APPLICATION_CONTEXT ( 'configuration controlled 3d designs of mechanical parts and assemblies' ) ;
#328 = ORIENTED_EDGE ( 'NONE', *, *, #256, .F. ) ;
#329 = CARTESIAN_POINT ( 'NONE',  ( 2.672394653685593217E-31, 0.6249999999999985567, 7.654042494670940597E-17 ) ) ;
#330 = CLOSED_SHELL ( 'NONE', ( #309, #117, #294, #193, #83, #331 ) ) ;
#331 = ADVANCED_FACE ( 'NONE', ( #164 ), #137, .F. ) ;
#332 = EDGE_LOOP ( 'NONE', ( #15, #140, #217, #204 ) ) ;
#333 = FACE_OUTER_BOUND ( 'NONE', #227, .T. ) ;
#334 = VECTOR ( 'NONE', #71, 1000.000000000000114 ) ;
#335 = CARTESIAN_POINT ( 'NONE',  ( 1.311183524112794463E-15, -4.599012711411267491E-17, 0.3755378868922271685 ) ) ;
#336 = DIRECTION ( 'NONE',  ( -3.491481338843133355E-15, 1.224646799147353207E-16, -1.000000000000000000 ) ) ;
#337 = EDGE_LOOP ( 'NONE', ( #323, #32, #102 ) ) ;
ENDSEC;
END-ISO-10303-21;
