ISO-10303-21;
HEADER;
FILE_DESCRIPTION (( 'STEP AP203' ),
    '1' );
FILE_NAME ('26087.step',
    '2021-11-12T10:08:53',
    ( '' ),
    ( '' ),
    'SwSTEP 2.0',
    'SolidWorks 2019',
    '' );
FILE_SCHEMA (( 'CONFIG_CONTROL_DESIGN' ));
ENDSEC;

DATA;
#1 = CALENDAR_DATE ( 2021, 12, 11 ) ;
#2 = VERTEX_POINT ( 'NONE', #193 ) ;
#3 = DATE_AND_TIME ( #174, #202 ) ;
#4 = DIRECTION ( 'NONE',  ( -3.491481338843133355E-15, 1.224646799147353207E-16, -1.000000000000000000 ) ) ;
#5 = DIRECTION ( 'NONE',  ( 0.0000000000000000000, 0.0000000000000000000, 1.000000000000000000 ) ) ;
#6 = CLOSED_SHELL ( 'NONE', ( #159, #139, #134 ) ) ;
#7 = EDGE_LOOP ( 'NONE', ( #43 ) ) ;
#8 = PLANE ( 'NONE',  #163 ) ;
#9 = APPROVAL_ROLE ( '' ) ;
#10 = FACE_OUTER_BOUND ( 'NONE', #181, .T. ) ;
#11 = MANIFOLD_SOLID_BREP ( 'Corps-Déplacer/Copier1[2]', #6 ) ;
#12 = FACE_BOUND ( 'NONE', #30, .T. ) ;
#13 = FACE_OUTER_BOUND ( 'NONE', #144, .T. ) ;
#14 = PRODUCT_DEFINITION ( 'UNKNOWN', '', #172, #80 ) ;
#15 = AXIS2_PLACEMENT_3D ( 'NONE', #40, #62, #179 ) ;
#16 = CC_DESIGN_APPROVAL ( #55, ( #52 ) ) ;
#17 = CC_DESIGN_PERSON_AND_ORGANIZATION_ASSIGNMENT ( #113, #77, ( #172 ) ) ;
#18 = AXIS2_PLACEMENT_3D ( 'NONE', #20, #5, #109 ) ;
#19 = APPROVAL_STATUS ( 'not_yet_approved' ) ;
#20 = CARTESIAN_POINT ( 'NONE',  ( 0.0000000000000000000, 0.0000000000000000000, 0.0000000000000000000 ) ) ;
#21 = CIRCLE ( 'NONE', #84, 9.499999999999996447 ) ;
#22 = ADVANCED_FACE ( 'NONE', ( #130, #12 ), #51, .T. ) ;
#23 = CYLINDRICAL_SURFACE ( 'NONE', #124, 9.999999999999984013 ) ;
#24 = APPLICATION_CONTEXT ( 'configuration controlled 3d designs of mechanical parts and assemblies' ) ;
#25 = PERSON_AND_ORGANIZATION_ROLE ( 'classification_officer' ) ;
#26 = LOCAL_TIME ( 11, 8, 53.00000000000000000, #58 ) ;
#27 = CARTESIAN_POINT ( 'NONE',  ( 4.538925740496073109E-13, -1.592040838891559135E-14, 129.9999999999999716 ) ) ;
#28 = APPROVAL_STATUS ( 'not_yet_approved' ) ;
#29 = PERSON_AND_ORGANIZATION ( #105, #45 ) ;
#30 = EDGE_LOOP ( 'NONE', ( #44 ) ) ;
#31 = APPROVAL_DATE_TIME ( #142, #55 ) ;
#32 = PLANE ( 'NONE',  #67 ) ;
#33 = VERTEX_POINT ( 'NONE', #35 ) ;
#34 = CARTESIAN_POINT ( 'NONE',  ( 0.0000000000000000000, 0.0000000000000000000, 0.0000000000000000000 ) ) ;
#35 = CARTESIAN_POINT ( 'NONE',  ( 4.521468333801858011E-13, 9.999999999999953815, 129.5000000000000000 ) ) ;
#36 = DIRECTION ( 'NONE',  ( 4.275831445896958607E-31, 1.000000000000000000, 1.224646799147353207E-16 ) ) ;
#37 = EDGE_CURVE ( 'NONE', #164, #164, #21, .T. ) ;
#38 =( LENGTH_UNIT ( ) NAMED_UNIT ( * ) SI_UNIT ( .MILLI., .METRE. ) );
#39 = PERSON_AND_ORGANIZATION ( #105, #45 ) ;
#40 = CARTESIAN_POINT ( 'NONE',  ( -4.275831445896958256E-30, 1.499759782661857608E-31, -1.224646799147353256E-15 ) ) ;
#41 = FACE_OUTER_BOUND ( 'NONE', #115, .T. ) ;
#42 = PERSON_AND_ORGANIZATION ( #105, #45 ) ;
#43 = ORIENTED_EDGE ( 'NONE', *, *, #64, .F. ) ;
#44 = ORIENTED_EDGE ( 'NONE', *, *, #37, .T. ) ;
#45 = ORGANIZATION ( 'UNSPECIFIED', 'UNSPECIFIED', '' ) ;
#46 = CC_DESIGN_PERSON_AND_ORGANIZATION_ASSIGNMENT ( #39, #25, ( #52 ) ) ;
#47 = DIRECTION ( 'NONE',  ( -4.275831445896958607E-31, -1.000000000000000000, -1.224646799147353207E-16 ) ) ;
#48 = CIRCLE ( 'NONE', #187, 9.999999999999969802 ) ;
#49 = MECHANICAL_CONTEXT ( 'NONE', #76, 'mechanical' ) ;
#50 = ADVANCED_FACE ( 'NONE', ( #97 ), #165, .F. ) ;
#51 = CONICAL_SURFACE ( 'NONE', #143, 9.499999999999996447, 0.7853981633974482790 ) ;
#52 = SECURITY_CLASSIFICATION ( '', '', #182 ) ;
#53 = COORDINATED_UNIVERSAL_TIME_OFFSET ( 1, 0, .AHEAD. ) ;
#54 = CARTESIAN_POINT ( 'NONE',  ( 1.396592535537253342E-13, 9.999999999999994671, 40.00000000000000000 ) ) ;
#55 = APPROVAL ( #28, 'UNSPECIFIED' ) ;
#56 = EDGE_LOOP ( 'NONE', ( #111 ) ) ;
#57 = DIRECTION ( 'NONE',  ( -4.275831445896958607E-31, -1.000000000000000000, -1.224646799147353207E-16 ) ) ;
#58 = COORDINATED_UNIVERSAL_TIME_OFFSET ( 1, 0, .AHEAD. ) ;
#59 = CC_DESIGN_PERSON_AND_ORGANIZATION_ASSIGNMENT ( #122, #136, ( #78 ) ) ;
#60 = DIRECTION ( 'NONE',  ( -3.491481338843133355E-15, 1.224646799147353207E-16, -1.000000000000000000 ) ) ;
#61 = APPROVAL_DATE_TIME ( #74, #86 ) ;
#62 = DIRECTION ( 'NONE',  ( -3.491481338843133355E-15, 1.224646799147353207E-16, -1.000000000000000000 ) ) ;
#63 = DATE_TIME_ROLE ( 'classification_date' ) ;
#64 = EDGE_CURVE ( 'NONE', #33, #33, #48, .T. ) ;
#65 = CARTESIAN_POINT ( 'NONE',  ( 1.396592535537253342E-13, 7.498798913309280376E-32, 40.00000000000000000 ) ) ;
#66 = CC_DESIGN_APPROVAL ( #71, ( #14 ) ) ;
#67 = AXIS2_PLACEMENT_3D ( 'NONE', #160, #4, #36 ) ;
#68 = VERTEX_POINT ( 'NONE', #150 ) ;
#69 = DATE_AND_TIME ( #1, #73 ) ;
#70 =( NAMED_UNIT ( * ) PLANE_ANGLE_UNIT ( ) SI_UNIT ( $, .RADIAN. ) );
#71 = APPROVAL ( #19, 'UNSPECIFIED' ) ;
#72 = CARTESIAN_POINT ( 'NONE',  ( 1.396592535537253342E-13, -4.898587196589413026E-15, 40.00000000000000000 ) ) ;
#73 = LOCAL_TIME ( 11, 8, 53.00000000000000000, #90 ) ;
#74 = DATE_AND_TIME ( #81, #26 ) ;
#75 = ORIENTED_EDGE ( 'NONE', *, *, #102, .T. ) ;
#76 = APPLICATION_CONTEXT ( 'configuration controlled 3d designs of mechanical parts and assemblies' ) ;
#77 = PERSON_AND_ORGANIZATION_ROLE ( 'creator' ) ;
#78 = PRODUCT ( '26087', '26087', '', ( #49 ) ) ;
#79 = ORIENTED_EDGE ( 'NONE', *, *, #102, .F. ) ;
#80 = DESIGN_CONTEXT ( 'detailed design', #24, 'design' ) ;
#81 = CALENDAR_DATE ( 2021, 12, 11 ) ;
#82 = CARTESIAN_POINT ( 'NONE',  ( 4.521468333801858011E-13, -1.585917604895822693E-14, 129.5000000000000000 ) ) ;
#83 = ORIENTED_EDGE ( 'NONE', *, *, #37, .F. ) ;
#84 = AXIS2_PLACEMENT_3D ( 'NONE', #200, #183, #126 ) ;
#85 = APPROVAL_PERSON_ORGANIZATION ( #42, #55, #9 ) ;
#86 = APPROVAL ( #192, 'UNSPECIFIED' ) ;
#87 = MANIFOLD_SOLID_BREP ( 'Corps-Déplacer/Copier1[1]', #119 ) ;
#88 = CC_DESIGN_DATE_AND_TIME_ASSIGNMENT ( #3, #107, ( #14 ) ) ;
#89 = APPROVAL_ROLE ( '' ) ;
#90 = COORDINATED_UNIVERSAL_TIME_OFFSET ( 1, 0, .AHEAD. ) ;
#91 = FACE_OUTER_BOUND ( 'NONE', #110, .T. ) ;
#92 = PRODUCT_DEFINITION_SHAPE ( 'NONE', 'NONE',  #14 ) ;
#93 = APPLICATION_PROTOCOL_DEFINITION ( 'international standard', 'config_control_design', 1994, #24 ) ;
#94 = CARTESIAN_POINT ( 'NONE',  ( 4.538925740496074119E-13, 7.123858967643796815E-32, 130.0000000000000000 ) ) ;
#95 = APPROVAL_PERSON_ORGANIZATION ( #137, #86, #157 ) ;
#96 = ADVANCED_FACE ( 'NONE', ( #10 ), #8, .F. ) ;
#97 = FACE_OUTER_BOUND ( 'NONE', #168, .T. ) ;
#98 = CALENDAR_DATE ( 2021, 12, 11 ) ;
#99 = EDGE_LOOP ( 'NONE', ( #153 ) ) ;
#100 = DIRECTION ( 'NONE',  ( 0.0000000000000000000, 1.000000000000000000, 0.0000000000000000000 ) ) ;
#101 = DIRECTION ( 'NONE',  ( -3.491481338843133355E-15, 1.224646799147353207E-16, -1.000000000000000000 ) ) ;
#102 = EDGE_CURVE ( 'NONE', #68, #68, #194, .T. ) ;
#103 =( GEOMETRIC_REPRESENTATION_CONTEXT ( 3 ) GLOBAL_UNCERTAINTY_ASSIGNED_CONTEXT ( ( #180 ) ) GLOBAL_UNIT_ASSIGNED_CONTEXT ( ( #38, #70, #151 ) ) REPRESENTATION_CONTEXT ( 'NONE', 'WORKASPACE' ) );
#104 = APPLICATION_PROTOCOL_DEFINITION ( 'international standard', 'config_control_design', 1994, #76 ) ;
#105 = PERSON ( 'UNSPECIFIED', 'UNSPECIFIED', 'UNSPECIFIED', ('UNSPECIFIED'), ('UNSPECIFIED'), ('UNSPECIFIED') ) ;
#106 = VERTEX_POINT ( 'NONE', #54 ) ;
#107 = DATE_TIME_ROLE ( 'creation_date' ) ;
#108 = AXIS2_PLACEMENT_3D ( 'NONE', #65, #146, #47 ) ;
#109 = DIRECTION ( 'NONE',  ( 1.000000000000000000, 0.0000000000000000000, 0.0000000000000000000 ) ) ;
#110 = EDGE_LOOP ( 'NONE', ( #166 ) ) ;
#111 = ORIENTED_EDGE ( 'NONE', *, *, #64, .T. ) ;
#112 = LOCAL_TIME ( 11, 8, 53.00000000000000000, #176 ) ;
#113 = PERSON_AND_ORGANIZATION ( #105, #45 ) ;
#114 = PLANE ( 'NONE',  #108 ) ;
#115 = EDGE_LOOP ( 'NONE', ( #158 ) ) ;
#116 = CC_DESIGN_DATE_AND_TIME_ASSIGNMENT ( #196, #63, ( #52 ) ) ;
#117 = AXIS2_PLACEMENT_3D ( 'NONE', #94, #156, #154 ) ;
#118 = FACE_OUTER_BOUND ( 'NONE', #155, .T. ) ;
#119 = CLOSED_SHELL ( 'NONE', ( #96, #161, #22, #50 ) ) ;
#120 = PERSON_AND_ORGANIZATION ( #105, #45 ) ;
#121 = CC_DESIGN_APPROVAL ( #86, ( #172 ) ) ;
#122 = PERSON_AND_ORGANIZATION ( #105, #45 ) ;
#123 = FACE_OUTER_BOUND ( 'NONE', #56, .T. ) ;
#124 = AXIS2_PLACEMENT_3D ( 'NONE', #34, #171, #148 ) ;
#125 = EDGE_CURVE ( 'NONE', #106, #106, #152, .T. ) ;
#126 = DIRECTION ( 'NONE',  ( 0.0000000000000000000, 1.000000000000000000, 0.0000000000000000000 ) ) ;
#127 = COORDINATED_UNIVERSAL_TIME_OFFSET ( 1, 0, .AHEAD. ) ;
#128 = CARTESIAN_POINT ( 'NONE',  ( 1.396592535537253342E-13, -4.898587196589413026E-15, 40.00000000000000000 ) ) ;
#129 = DIRECTION ( 'NONE',  ( 0.0000000000000000000, 1.000000000000000000, 0.0000000000000000000 ) ) ;
#130 = FACE_OUTER_BOUND ( 'NONE', #7, .T. ) ;
#131 = CALENDAR_DATE ( 2021, 12, 11 ) ;
#132 = CC_DESIGN_PERSON_AND_ORGANIZATION_ASSIGNMENT ( #29, #167, ( #172 ) ) ;
#133 = DIRECTION ( 'NONE',  ( 4.275831445896958607E-31, 1.000000000000000000, 1.224646799147353207E-16 ) ) ;
#134 = ADVANCED_FACE ( 'NONE', ( #41 ), #114, .T. ) ;
#135 = DIRECTION ( 'NONE',  ( 0.0000000000000000000, 1.000000000000000000, 0.0000000000000000000 ) ) ;
#136 = PERSON_AND_ORGANIZATION_ROLE ( 'design_owner' ) ;
#137 = PERSON_AND_ORGANIZATION ( #105, #45 ) ;
#138 = DIRECTION ( 'NONE',  ( -3.491481338843133355E-15, 1.224646799147353207E-16, -1.000000000000000000 ) ) ;
#139 = ADVANCED_FACE ( 'NONE', ( #170, #13 ), #185, .T. ) ;
#140 = DIRECTION ( 'NONE',  ( -3.491481338843133355E-15, 1.224646799147353207E-16, -1.000000000000000000 ) ) ;
#141 = ORIENTED_EDGE ( 'NONE', *, *, #125, .T. ) ;
#142 = DATE_AND_TIME ( #98, #189 ) ;
#143 = AXIS2_PLACEMENT_3D ( 'NONE', #27, #177, #100 ) ;
#144 = EDGE_LOOP ( 'NONE', ( #79 ) ) ;
#145 = ADVANCED_BREP_SHAPE_REPRESENTATION ( '26087', ( #87, #11, #18 ), #103 ) ;
#146 = DIRECTION ( 'NONE',  ( 3.491481338843133355E-15, -1.224646799147353207E-16, 1.000000000000000000 ) ) ;
#147 = AXIS2_PLACEMENT_3D ( 'NONE', #72, #138, #135 ) ;
#148 = DIRECTION ( 'NONE',  ( 4.275831445896958607E-31, 1.000000000000000000, 1.224646799147353207E-16 ) ) ;
#149 = CARTESIAN_POINT ( 'NONE',  ( 4.538925740496073109E-13, 9.499999999999980460, 129.9999999999999716 ) ) ;
#150 = CARTESIAN_POINT ( 'NONE',  ( 0.0000000000000000000, 10.00000000000000000, 0.0000000000000000000 ) ) ;
#151 =( NAMED_UNIT ( * ) SI_UNIT ( $, .STERADIAN. ) SOLID_ANGLE_UNIT ( ) );
#152 = CIRCLE ( 'NONE', #186, 10.00000000000000000 ) ;
#153 = ORIENTED_EDGE ( 'NONE', *, *, #191, .T. ) ;
#154 = DIRECTION ( 'NONE',  ( 4.275831445896958607E-31, 1.000000000000000000, 1.224646799147353207E-16 ) ) ;
#155 = EDGE_LOOP ( 'NONE', ( #75 ) ) ;
#156 = DIRECTION ( 'NONE',  ( -3.491481338843133355E-15, 1.224646799147353207E-16, -1.000000000000000000 ) ) ;
#157 = APPROVAL_ROLE ( '' ) ;
#158 = ORIENTED_EDGE ( 'NONE', *, *, #191, .F. ) ;
#159 = ADVANCED_FACE ( 'NONE', ( #118 ), #32, .T. ) ;
#160 = CARTESIAN_POINT ( 'NONE',  ( -2.137915722948479128E-30, 7.498798913309288039E-32, -6.123233995736766282E-16 ) ) ;
#161 = ADVANCED_FACE ( 'NONE', ( #123, #91 ), #23, .T. ) ;
#162 = APPROVAL_PERSON_ORGANIZATION ( #120, #71, #89 ) ;
#163 = AXIS2_PLACEMENT_3D ( 'NONE', #199, #197, #57 ) ;
#164 = VERTEX_POINT ( 'NONE', #149 ) ;
#165 = PLANE ( 'NONE',  #117 ) ;
#166 = ORIENTED_EDGE ( 'NONE', *, *, #125, .F. ) ;
#167 = PERSON_AND_ORGANIZATION_ROLE ( 'design_supplier' ) ;
#168 = EDGE_LOOP ( 'NONE', ( #83 ) ) ;
#169 = CC_DESIGN_PERSON_AND_ORGANIZATION_ASSIGNMENT ( #173, #190, ( #14 ) ) ;
#170 = FACE_OUTER_BOUND ( 'NONE', #99, .T. ) ;
#171 = DIRECTION ( 'NONE',  ( -3.491481338843133355E-15, 1.224646799147353207E-16, -1.000000000000000000 ) ) ;
#172 = PRODUCT_DEFINITION_FORMATION_WITH_SPECIFIED_SOURCE ( 'ANY', '', #78, .NOT_KNOWN. ) ;
#173 = PERSON_AND_ORGANIZATION ( #105, #45 ) ;
#174 = CALENDAR_DATE ( 2021, 12, 11 ) ;
#175 = AXIS2_PLACEMENT_3D ( 'NONE', #201, #101, #133 ) ;
#176 = COORDINATED_UNIVERSAL_TIME_OFFSET ( 1, 0, .AHEAD. ) ;
#177 = DIRECTION ( 'NONE',  ( -3.491481338843133355E-15, 1.224646799147353207E-16, -1.000000000000000000 ) ) ;
#178 = SHAPE_DEFINITION_REPRESENTATION ( #92, #145 ) ;
#179 = DIRECTION ( 'NONE',  ( 4.275831445896958607E-31, 1.000000000000000000, 1.224646799147353207E-16 ) ) ;
#180 = UNCERTAINTY_MEASURE_WITH_UNIT (LENGTH_MEASURE( 1.000000000000000082E-05 ), #38, 'distance_accuracy_value', 'NONE');
#181 = EDGE_LOOP ( 'NONE', ( #141 ) ) ;
#182 = SECURITY_CLASSIFICATION_LEVEL ( 'unclassified' ) ;
#183 = DIRECTION ( 'NONE',  ( -3.491481338843133355E-15, 1.224646799147353207E-16, -1.000000000000000000 ) ) ;
#184 = PRODUCT_RELATED_PRODUCT_CATEGORY ( 'detail', '', ( #78 ) ) ;
#185 = CYLINDRICAL_SURFACE ( 'NONE', #175, 10.00000000000000000 ) ;
#186 = AXIS2_PLACEMENT_3D ( 'NONE', #128, #60, #129 ) ;
#187 = AXIS2_PLACEMENT_3D ( 'NONE', #82, #140, #195 ) ;
#188 = APPROVAL_DATE_TIME ( #69, #71 ) ;
#189 = LOCAL_TIME ( 11, 8, 53.00000000000000000, #127 ) ;
#190 = PERSON_AND_ORGANIZATION_ROLE ( 'creator' ) ;
#191 = EDGE_CURVE ( 'NONE', #2, #2, #203, .T. ) ;
#192 = APPROVAL_STATUS ( 'not_yet_approved' ) ;
#193 = CARTESIAN_POINT ( 'NONE',  ( 1.396592535537253342E-13, 9.999999999999994671, 40.00000000000000000 ) ) ;
#194 = CIRCLE ( 'NONE', #15, 10.00000000000000000 ) ;
#195 = DIRECTION ( 'NONE',  ( 0.0000000000000000000, 1.000000000000000000, 0.0000000000000000000 ) ) ;
#196 = DATE_AND_TIME ( #131, #112 ) ;
#197 = DIRECTION ( 'NONE',  ( 3.491481338843133355E-15, -1.224646799147353207E-16, 1.000000000000000000 ) ) ;
#198 = CC_DESIGN_SECURITY_CLASSIFICATION ( #52, ( #172 ) ) ;
#199 = CARTESIAN_POINT ( 'NONE',  ( 1.396592535537253342E-13, 7.498798913309280376E-32, 40.00000000000000000 ) ) ;
#200 = CARTESIAN_POINT ( 'NONE',  ( 4.538925740496073109E-13, -1.592040838891559135E-14, 129.9999999999999716 ) ) ;
#201 = CARTESIAN_POINT ( 'NONE',  ( 0.0000000000000000000, 0.0000000000000000000, 0.0000000000000000000 ) ) ;
#202 = LOCAL_TIME ( 11, 8, 53.00000000000000000, #53 ) ;
#203 = CIRCLE ( 'NONE', #147, 10.00000000000000000 ) ;
ENDSEC;
END-ISO-10303-21;
