ISO-10303-21;
HEADER;
FILE_DESCRIPTION (( 'STEP AP203' ),
    '1' );
FILE_NAME ('26086.step',
    '2021-11-12T10:08:53',
    ( '' ),
    ( '' ),
    'SwSTEP 2.0',
    'SolidWorks 2019',
    '' );
FILE_SCHEMA (( 'CONFIG_CONTROL_DESIGN' ));
ENDSEC;

DATA;
#1 = DATE_TIME_ROLE ( 'creation_date' ) ;
#2 = ORIENTED_EDGE ( 'NONE', *, *, #63, .T. ) ;
#3 = DIRECTION ( 'NONE',  ( -3.491481338843133355E-15, 1.224646799147353207E-16, -1.000000000000000000 ) ) ;
#4 = FACE_OUTER_BOUND ( 'NONE', #166, .T. ) ;
#5 = PRODUCT_DEFINITION_FORMATION_WITH_SPECIFIED_SOURCE ( 'ANY', '', #82, .NOT_KNOWN. ) ;
#6 = AXIS2_PLACEMENT_3D ( 'NONE', #75, #191, #45 ) ;
#7 = CARTESIAN_POINT ( 'NONE',  ( 1.396592535537253342E-13, -4.898587196589413026E-15, 40.00000000000000000 ) ) ;
#8 = PLANE ( 'NONE',  #60 ) ;
#9 = CC_DESIGN_PERSON_AND_ORGANIZATION_ASSIGNMENT ( #36, #21, ( #5 ) ) ;
#10 = LOCAL_TIME ( 11, 8, 53.00000000000000000, #145 ) ;
#11 = DIRECTION ( 'NONE',  ( -3.491481338843133355E-15, 1.224646799147353207E-16, -1.000000000000000000 ) ) ;
#12 = CARTESIAN_POINT ( 'NONE',  ( 0.0000000000000000000, 0.0000000000000000000, 0.0000000000000000000 ) ) ;
#13 = CIRCLE ( 'NONE', #188, 9.000000000000000000 ) ;
#14 = APPROVAL_ROLE ( '' ) ;
#15 = APPROVAL_DATE_TIME ( #55, #17 ) ;
#16 = ORIENTED_EDGE ( 'NONE', *, *, #63, .F. ) ;
#17 = APPROVAL ( #70, 'UNSPECIFIED' ) ;
#18 = PRODUCT_DEFINITION_SHAPE ( 'NONE', 'NONE',  #194 ) ;
#19 = MANIFOLD_SOLID_BREP ( 'Corps-Déplacer/Copier1[1]', #50 ) ;
#20 = LOCAL_TIME ( 11, 8, 53.00000000000000000, #80 ) ;
#21 = PERSON_AND_ORGANIZATION_ROLE ( 'creator' ) ;
#22 = CARTESIAN_POINT ( 'NONE',  ( 1.396592535537253342E-13, -4.898587196589413026E-15, 40.00000000000000000 ) ) ;
#23 = FACE_OUTER_BOUND ( 'NONE', #189, .T. ) ;
#24 = CARTESIAN_POINT ( 'NONE',  ( 4.364351673553916568E-13, -1.530808498934191561E-14, 125.0000000000000000 ) ) ;
#25 = CC_DESIGN_DATE_AND_TIME_ASSIGNMENT ( #128, #99, ( #68 ) ) ;
#26 = CARTESIAN_POINT ( 'NONE',  ( 0.0000000000000000000, 0.0000000000000000000, 0.0000000000000000000 ) ) ;
#27 = DESIGN_CONTEXT ( 'detailed design', #202, 'design' ) ;
#28 = CC_DESIGN_PERSON_AND_ORGANIZATION_ASSIGNMENT ( #159, #176, ( #82 ) ) ;
#29 = FACE_OUTER_BOUND ( 'NONE', #95, .T. ) ;
#30 = AXIS2_PLACEMENT_3D ( 'NONE', #43, #59, #129 ) ;
#31 = AXIS2_PLACEMENT_3D ( 'NONE', #49, #199, #139 ) ;
#32 = APPLICATION_CONTEXT ( 'configuration controlled 3d designs of mechanical parts and assemblies' ) ;
#33 =( NAMED_UNIT ( * ) SI_UNIT ( $, .STERADIAN. ) SOLID_ANGLE_UNIT ( ) );
#34 = PERSON_AND_ORGANIZATION ( #137, #138 ) ;
#35 = PERSON_AND_ORGANIZATION_ROLE ( 'creator' ) ;
#36 = PERSON_AND_ORGANIZATION ( #137, #138 ) ;
#37 = EDGE_LOOP ( 'NONE', ( #148 ) ) ;
#38 = DATE_AND_TIME ( #167, #154 ) ;
#39 = ADVANCED_FACE ( 'NONE', ( #23 ), #181, .T. ) ;
#40 = APPROVAL_STATUS ( 'not_yet_approved' ) ;
#41 = CALENDAR_DATE ( 2021, 12, 11 ) ;
#42 = DIRECTION ( 'NONE',  ( -3.491481338843133355E-15, 1.224646799147353207E-16, -1.000000000000000000 ) ) ;
#43 = CARTESIAN_POINT ( 'NONE',  ( 4.346894266859701469E-13, -1.524685264938454803E-14, 124.5000000000000142 ) ) ;
#44 = CC_DESIGN_PERSON_AND_ORGANIZATION_ASSIGNMENT ( #146, #114, ( #68 ) ) ;
#45 = DIRECTION ( 'NONE',  ( -4.275831445896958607E-31, -1.000000000000000000, -1.224646799147353207E-16 ) ) ;
#46 = AXIS2_PLACEMENT_3D ( 'NONE', #116, #64, #151 ) ;
#47 = AXIS2_PLACEMENT_3D ( 'NONE', #7, #42, #192 ) ;
#48 = VERTEX_POINT ( 'NONE', #141 ) ;
#49 = CARTESIAN_POINT ( 'NONE',  ( 4.364351673553916568E-13, -1.530808498934191561E-14, 125.0000000000000000 ) ) ;
#50 = CLOSED_SHELL ( 'NONE', ( #76, #106, #172, #88 ) ) ;
#51 = APPROVAL_PERSON_ORGANIZATION ( #179, #17, #81 ) ;
#52 = APPLICATION_PROTOCOL_DEFINITION ( 'international standard', 'config_control_design', 1994, #202 ) ;
#53 = DATE_AND_TIME ( #143, #20 ) ;
#54 = EDGE_CURVE ( 'NONE', #48, #48, #135, .T. ) ;
#55 = DATE_AND_TIME ( #190, #158 ) ;
#56 = EDGE_LOOP ( 'NONE', ( #16 ) ) ;
#57 = PERSON_AND_ORGANIZATION ( #137, #138 ) ;
#58 = PERSON_AND_ORGANIZATION_ROLE ( 'design_supplier' ) ;
#59 = DIRECTION ( 'NONE',  ( -3.491481338843133355E-15, 1.224646799147353207E-16, -1.000000000000000000 ) ) ;
#60 = AXIS2_PLACEMENT_3D ( 'NONE', #140, #11, #66 ) ;
#61 = EDGE_LOOP ( 'NONE', ( #111 ) ) ;
#62 = CLOSED_SHELL ( 'NONE', ( #200, #187, #39 ) ) ;
#63 = EDGE_CURVE ( 'NONE', #198, #198, #156, .T. ) ;
#64 = DIRECTION ( 'NONE',  ( -3.491481338843133355E-15, 1.224646799147353207E-16, -1.000000000000000000 ) ) ;
#65 = CARTESIAN_POINT ( 'NONE',  ( 0.0000000000000000000, 9.000000000000000000, 0.0000000000000000000 ) ) ;
#66 = DIRECTION ( 'NONE',  ( 4.275831445896958607E-31, 1.000000000000000000, 1.224646799147353207E-16 ) ) ;
#67 = FACE_BOUND ( 'NONE', #147, .T. ) ;
#68 = SECURITY_CLASSIFICATION ( '', '', #164 ) ;
#69 = ORIENTED_EDGE ( 'NONE', *, *, #123, .F. ) ;
#70 = APPROVAL_STATUS ( 'not_yet_approved' ) ;
#71 = COORDINATED_UNIVERSAL_TIME_OFFSET ( 1, 0, .AHEAD. ) ;
#72 = ORIENTED_EDGE ( 'NONE', *, *, #152, .F. ) ;
#73 = DIRECTION ( 'NONE',  ( 4.275831445896958607E-31, 1.000000000000000000, 1.224646799147353207E-16 ) ) ;
#74 = AXIS2_PLACEMENT_3D ( 'NONE', #26, #155, #91 ) ;
#75 = CARTESIAN_POINT ( 'NONE',  ( 1.396592535537253342E-13, 6.748919021978351572E-32, 40.00000000000000000 ) ) ;
#76 = ADVANCED_FACE ( 'NONE', ( #117 ), #102, .F. ) ;
#77 = DIRECTION ( 'NONE',  ( -3.491481338843133355E-15, 1.224646799147353207E-16, -1.000000000000000000 ) ) ;
#78 = CARTESIAN_POINT ( 'NONE',  ( 1.396592535537253342E-13, 8.999999999999994671, 40.00000000000000000 ) ) ;
#79 = ADVANCED_BREP_SHAPE_REPRESENTATION ( '26086', ( #19, #161, #84 ), #183 ) ;
#80 = COORDINATED_UNIVERSAL_TIME_OFFSET ( 1, 0, .AHEAD. ) ;
#81 = APPROVAL_ROLE ( '' ) ;
#82 = PRODUCT ( '26086', '26086', '', ( #162 ) ) ;
#83 = APPROVAL ( #40, 'UNSPECIFIED' ) ;
#84 = AXIS2_PLACEMENT_3D ( 'NONE', #12, #109, #142 ) ;
#85 = SHAPE_DEFINITION_REPRESENTATION ( #18, #79 ) ;
#86 = DIRECTION ( 'NONE',  ( 0.0000000000000000000, 1.000000000000000000, 0.0000000000000000000 ) ) ;
#87 = DIRECTION ( 'NONE',  ( 3.491481338843133355E-15, -1.224646799147353207E-16, 1.000000000000000000 ) ) ;
#88 = ADVANCED_FACE ( 'NONE', ( #4 ), #195, .F. ) ;
#89 = CARTESIAN_POINT ( 'NONE',  ( 1.396592535537253342E-13, 6.748919021978351572E-32, 40.00000000000000000 ) ) ;
#90 = AXIS2_PLACEMENT_3D ( 'NONE', #149, #3, #73 ) ;
#91 = DIRECTION ( 'NONE',  ( 4.275831445896958607E-31, 1.000000000000000000, 1.224646799147352961E-16 ) ) ;
#92 = LOCAL_TIME ( 11, 8, 53.00000000000000000, #94 ) ;
#93 = CIRCLE ( 'NONE', #203, 8.500000000000008882 ) ;
#94 = COORDINATED_UNIVERSAL_TIME_OFFSET ( 1, 0, .AHEAD. ) ;
#95 = EDGE_LOOP ( 'NONE', ( #168 ) ) ;
#96 = APPROVAL_PERSON_ORGANIZATION ( #34, #182, #14 ) ;
#97 = DATE_AND_TIME ( #180, #92 ) ;
#98 = APPROVAL_ROLE ( '' ) ;
#99 = DATE_TIME_ROLE ( 'classification_date' ) ;
#100 = DIRECTION ( 'NONE',  ( 4.275831445896958607E-31, 1.000000000000000000, 1.224646799147352961E-16 ) ) ;
#101 = CC_DESIGN_DATE_AND_TIME_ASSIGNMENT ( #97, #1, ( #194 ) ) ;
#102 = PLANE ( 'NONE',  #6 ) ;
#103 = CC_DESIGN_APPROVAL ( #17, ( #5 ) ) ;
#104 = DIRECTION ( 'NONE',  ( -3.491481338843133355E-15, 1.224646799147353207E-16, -1.000000000000000000 ) ) ;
#105 =( LENGTH_UNIT ( ) NAMED_UNIT ( * ) SI_UNIT ( .MILLI., .METRE. ) );
#106 = ADVANCED_FACE ( 'NONE', ( #171, #133 ), #118, .T. ) ;
#107 = CYLINDRICAL_SURFACE ( 'NONE', #74, 9.000000000000000000 ) ;
#108 = APPLICATION_PROTOCOL_DEFINITION ( 'international standard', 'config_control_design', 1994, #32 ) ;
#109 = DIRECTION ( 'NONE',  ( 0.0000000000000000000, 0.0000000000000000000, 1.000000000000000000 ) ) ;
#110 = APPROVAL_DATE_TIME ( #53, #182 ) ;
#111 = ORIENTED_EDGE ( 'NONE', *, *, #54, .F. ) ;
#112 = ORIENTED_EDGE ( 'NONE', *, *, #123, .T. ) ;
#113 = COORDINATED_UNIVERSAL_TIME_OFFSET ( 1, 0, .AHEAD. ) ;
#114 = PERSON_AND_ORGANIZATION_ROLE ( 'classification_officer' ) ;
#115 = CARTESIAN_POINT ( 'NONE',  ( 0.0000000000000000000, 0.0000000000000000000, 0.0000000000000000000 ) ) ;
#116 = CARTESIAN_POINT ( 'NONE',  ( -3.848248301307262571E-30, 1.349783804395671628E-31, -1.102182119232617714E-15 ) ) ;
#117 = FACE_OUTER_BOUND ( 'NONE', #37, .T. ) ;
#118 = CYLINDRICAL_SURFACE ( 'NONE', #121, 9.000000000000001776 ) ;
#119 = CC_DESIGN_APPROVAL ( #83, ( #68 ) ) ;
#120 = VERTEX_POINT ( 'NONE', #185 ) ;
#121 = AXIS2_PLACEMENT_3D ( 'NONE', #115, #104, #100 ) ;
#122 = FACE_OUTER_BOUND ( 'NONE', #131, .T. ) ;
#123 = EDGE_CURVE ( 'NONE', #124, #124, #13, .T. ) ;
#124 = VERTEX_POINT ( 'NONE', #78 ) ;
#125 = EDGE_LOOP ( 'NONE', ( #178 ) ) ;
#126 = PERSON_AND_ORGANIZATION ( #137, #138 ) ;
#127 = EDGE_CURVE ( 'NONE', #197, #197, #130, .T. ) ;
#128 = DATE_AND_TIME ( #41, #10 ) ;
#129 = DIRECTION ( 'NONE',  ( 0.0000000000000000000, 1.000000000000000000, 0.0000000000000000000 ) ) ;
#130 = CIRCLE ( 'NONE', #46, 9.000000000000000000 ) ;
#131 = EDGE_LOOP ( 'NONE', ( #112 ) ) ;
#132 = APPROVAL_PERSON_ORGANIZATION ( #57, #83, #98 ) ;
#133 = FACE_OUTER_BOUND ( 'NONE', #61, .T. ) ;
#134 = DIRECTION ( 'NONE',  ( -4.275831445896958607E-31, -1.000000000000000000, -1.224646799147353207E-16 ) ) ;
#135 = CIRCLE ( 'NONE', #47, 9.000000000000000000 ) ;
#136 = DIRECTION ( 'NONE',  ( 0.0000000000000000000, 1.000000000000000000, 0.0000000000000000000 ) ) ;
#137 = PERSON ( 'UNSPECIFIED', 'UNSPECIFIED', 'UNSPECIFIED', ('UNSPECIFIED'), ('UNSPECIFIED'), ('UNSPECIFIED') ) ;
#138 = ORGANIZATION ( 'UNSPECIFIED', 'UNSPECIFIED', '' ) ;
#139 = DIRECTION ( 'NONE',  ( 0.0000000000000000000, 1.000000000000000000, 0.0000000000000000000 ) ) ;
#140 = CARTESIAN_POINT ( 'NONE',  ( -1.924124150653631285E-30, 6.748919021978358140E-32, -5.510910596163088569E-16 ) ) ;
#141 = CARTESIAN_POINT ( 'NONE',  ( 1.396592535537253342E-13, 8.999999999999994671, 40.00000000000000000 ) ) ;
#142 = DIRECTION ( 'NONE',  ( 1.000000000000000000, 0.0000000000000000000, 0.0000000000000000000 ) ) ;
#143 = CALENDAR_DATE ( 2021, 12, 11 ) ;
#144 = CC_DESIGN_PERSON_AND_ORGANIZATION_ASSIGNMENT ( #126, #58, ( #5 ) ) ;
#145 = COORDINATED_UNIVERSAL_TIME_OFFSET ( 1, 0, .AHEAD. ) ;
#146 = PERSON_AND_ORGANIZATION ( #137, #138 ) ;
#147 = EDGE_LOOP ( 'NONE', ( #184 ) ) ;
#148 = ORIENTED_EDGE ( 'NONE', *, *, #54, .T. ) ;
#149 = CARTESIAN_POINT ( 'NONE',  ( 4.364351673553916568E-13, 6.373979076312878959E-32, 125.0000000000000000 ) ) ;
#150 = PRODUCT_RELATED_PRODUCT_CATEGORY ( 'detail', '', ( #82 ) ) ;
#151 = DIRECTION ( 'NONE',  ( 4.275831445896958607E-31, 1.000000000000000000, 1.224646799147352961E-16 ) ) ;
#152 = EDGE_CURVE ( 'NONE', #120, #120, #93, .T. ) ;
#153 = AXIS2_PLACEMENT_3D ( 'NONE', #89, #87, #134 ) ;
#154 = LOCAL_TIME ( 11, 8, 53.00000000000000000, #71 ) ;
#155 = DIRECTION ( 'NONE',  ( -3.491481338843133355E-15, 1.224646799147353207E-16, -1.000000000000000000 ) ) ;
#156 = CIRCLE ( 'NONE', #30, 9.000000000000003553 ) ;
#157 = FACE_OUTER_BOUND ( 'NONE', #125, .T. ) ;
#158 = LOCAL_TIME ( 11, 8, 53.00000000000000000, #113 ) ;
#159 = PERSON_AND_ORGANIZATION ( #137, #138 ) ;
#160 = APPROVAL_STATUS ( 'not_yet_approved' ) ;
#161 = MANIFOLD_SOLID_BREP ( 'Corps-Déplacer/Copier1[2]', #62 ) ;
#162 = MECHANICAL_CONTEXT ( 'NONE', #32, 'mechanical' ) ;
#163 = CONICAL_SURFACE ( 'NONE', #31, 8.500000000000008882, 0.7853981633974552734 ) ;
#164 = SECURITY_CLASSIFICATION_LEVEL ( 'unclassified' ) ;
#165 = CC_DESIGN_PERSON_AND_ORGANIZATION_ASSIGNMENT ( #177, #35, ( #194 ) ) ;
#166 = EDGE_LOOP ( 'NONE', ( #72 ) ) ;
#167 = CALENDAR_DATE ( 2021, 12, 11 ) ;
#168 = ORIENTED_EDGE ( 'NONE', *, *, #127, .F. ) ;
#169 = CC_DESIGN_APPROVAL ( #182, ( #194 ) ) ;
#170 = APPROVAL_DATE_TIME ( #38, #83 ) ;
#171 = FACE_OUTER_BOUND ( 'NONE', #193, .T. ) ;
#172 = ADVANCED_FACE ( 'NONE', ( #196, #67 ), #163, .T. ) ;
#173 = DIRECTION ( 'NONE',  ( -3.491481338843133355E-15, 1.224646799147353207E-16, -1.000000000000000000 ) ) ;
#174 = UNCERTAINTY_MEASURE_WITH_UNIT (LENGTH_MEASURE( 1.000000000000000082E-05 ), #105, 'distance_accuracy_value', 'NONE');
#175 =( NAMED_UNIT ( * ) PLANE_ANGLE_UNIT ( ) SI_UNIT ( $, .RADIAN. ) );
#176 = PERSON_AND_ORGANIZATION_ROLE ( 'design_owner' ) ;
#177 = PERSON_AND_ORGANIZATION ( #137, #138 ) ;
#178 = ORIENTED_EDGE ( 'NONE', *, *, #127, .T. ) ;
#179 = PERSON_AND_ORGANIZATION ( #137, #138 ) ;
#180 = CALENDAR_DATE ( 2021, 12, 11 ) ;
#181 = PLANE ( 'NONE',  #153 ) ;
#182 = APPROVAL ( #160, 'UNSPECIFIED' ) ;
#183 =( GEOMETRIC_REPRESENTATION_CONTEXT ( 3 ) GLOBAL_UNCERTAINTY_ASSIGNED_CONTEXT ( ( #174 ) ) GLOBAL_UNIT_ASSIGNED_CONTEXT ( ( #105, #175, #33 ) ) REPRESENTATION_CONTEXT ( 'NONE', 'WORKASPACE' ) );
#184 = ORIENTED_EDGE ( 'NONE', *, *, #152, .T. ) ;
#185 = CARTESIAN_POINT ( 'NONE',  ( 4.364351673553916568E-13, 8.499999999999992895, 125.0000000000000000 ) ) ;
#186 = CC_DESIGN_SECURITY_CLASSIFICATION ( #68, ( #5 ) ) ;
#187 = ADVANCED_FACE ( 'NONE', ( #122, #29 ), #107, .T. ) ;
#188 = AXIS2_PLACEMENT_3D ( 'NONE', #22, #173, #86 ) ;
#189 = EDGE_LOOP ( 'NONE', ( #69 ) ) ;
#190 = CALENDAR_DATE ( 2021, 12, 11 ) ;
#191 = DIRECTION ( 'NONE',  ( 3.491481338843133355E-15, -1.224646799147353207E-16, 1.000000000000000000 ) ) ;
#192 = DIRECTION ( 'NONE',  ( 0.0000000000000000000, 1.000000000000000000, 0.0000000000000000000 ) ) ;
#193 = EDGE_LOOP ( 'NONE', ( #2 ) ) ;
#194 = PRODUCT_DEFINITION ( 'UNKNOWN', '', #5, #27 ) ;
#195 = PLANE ( 'NONE',  #90 ) ;
#196 = FACE_OUTER_BOUND ( 'NONE', #56, .T. ) ;
#197 = VERTEX_POINT ( 'NONE', #65 ) ;
#198 = VERTEX_POINT ( 'NONE', #201 ) ;
#199 = DIRECTION ( 'NONE',  ( -3.491481338843133355E-15, 1.224646799147353207E-16, -1.000000000000000000 ) ) ;
#200 = ADVANCED_FACE ( 'NONE', ( #157 ), #8, .T. ) ;
#201 = CARTESIAN_POINT ( 'NONE',  ( 4.346894266859701469E-13, 8.999999999999987566, 124.5000000000000142 ) ) ;
#202 = APPLICATION_CONTEXT ( 'configuration controlled 3d designs of mechanical parts and assemblies' ) ;
#203 = AXIS2_PLACEMENT_3D ( 'NONE', #24, #77, #136 ) ;
ENDSEC;
END-ISO-10303-21;
