ISO-10303-21;
HEADER;
FILE_DESCRIPTION (( 'STEP AP203' ),
    '1' );
FILE_NAME ('260.step',
    '2021-09-03T07:21:37',
    ( '' ),
    ( '' ),
    'SwSTEP 2.0',
    'SolidWorks 2019',
    '' );
FILE_SCHEMA (( 'CONFIG_CONTROL_DESIGN' ));
ENDSEC;

DATA;
#1 = ORIENTED_EDGE ( 'NONE', *, *, #106, .T. ) ;
#2 = ADVANCED_FACE ( 'NONE', ( #281 ), #44, .T. ) ;
#3 = LOCAL_TIME ( 9, 21, 37.00000000000000000, #47 ) ;
#4 = CARTESIAN_POINT ( 'NONE',  ( 0.0000000000000000000, 0.0000000000000000000, 0.0000000000000000000 ) ) ;
#5 = DIRECTION ( 'NONE',  ( -2.468850131082257455E-15, 0.7071067811865497932, -0.7071067811865453523 ) ) ;
#6 = PERSON_AND_ORGANIZATION_ROLE ( 'design_owner' ) ;
#7 = CC_DESIGN_PERSON_AND_ORGANIZATION_ASSIGNMENT ( #137, #6, ( #98 ) ) ;
#8 = FACE_OUTER_BOUND ( 'NONE', #18, .T. ) ;
#9 = CIRCLE ( 'NONE', #74, 0.3999999999999999667 ) ;
#10 = FACE_OUTER_BOUND ( 'NONE', #105, .T. ) ;
#11 = DIRECTION ( 'NONE',  ( -3.491481338843133355E-15, 1.224646799147353207E-16, -1.000000000000000000 ) ) ;
#12 = APPLICATION_CONTEXT ( 'configuration controlled 3d designs of mechanical parts and assemblies' ) ;
#13 = AXIS2_PLACEMENT_3D ( 'NONE', #252, #79, #17 ) ;
#14 = CIRCLE ( 'NONE', #313, 0.5999999999999972022 ) ;
#15 = PERSON_AND_ORGANIZATION ( #241, #248 ) ;
#16 = DATE_AND_TIME ( #123, #135 ) ;
#17 = DIRECTION ( 'NONE',  ( 0.0000000000000000000, 1.000000000000000000, 0.0000000000000000000 ) ) ;
#18 = EDGE_LOOP ( 'NONE', ( #320, #87 ) ) ;
#19 = APPLICATION_CONTEXT ( 'configuration controlled 3d designs of mechanical parts and assemblies' ) ;
#20 = COORDINATED_UNIVERSAL_TIME_OFFSET ( 1, 0, .AHEAD. ) ;
#21 = AXIS2_PLACEMENT_3D ( 'NONE', #187, #144, #215 ) ;
#22 = AXIS2_PLACEMENT_3D ( 'NONE', #275, #38, #61 ) ;
#23 = PERSON_AND_ORGANIZATION ( #241, #248 ) ;
#24 = VERTEX_POINT ( 'NONE', #59 ) ;
#25 = VERTEX_POINT ( 'NONE', #266 ) ;
#26 = CONICAL_SURFACE ( 'NONE', #224, 0.5999999999999963141, 1.029744258676649649 ) ;
#27 = ORIENTED_EDGE ( 'NONE', *, *, #311, .F. ) ;
#28 = EDGE_CURVE ( 'NONE', #310, #158, #169, .T. ) ;
#29 = ORIENTED_EDGE ( 'NONE', *, *, #95, .T. ) ;
#30 = DIRECTION ( 'NONE',  ( 3.209883240645412940E-31, 1.000000000000000000, 9.035018104045926161E-17 ) ) ;
#31 = APPLICATION_PROTOCOL_DEFINITION ( 'international standard', 'config_control_design', 1994, #12 ) ;
#32 = VECTOR ( 'NONE', #305, 999.9999999999998863 ) ;
#33 = DIRECTION ( 'NONE',  ( 3.491481338843133355E-15, -1.224646799147353207E-16, 1.000000000000000000 ) ) ;
#34 = CARTESIAN_POINT ( 'NONE',  ( 7.347880794884075856E-17, -0.5999999999999985345, -7.347880794884126392E-17 ) ) ;
#35 = DATE_AND_TIME ( #298, #170 ) ;
#36 = CARTESIAN_POINT ( 'NONE',  ( 1.258736183148282062E-15, -4.415052202954814819E-17, 0.3605163714165379174 ) ) ;
#37 = AXIS2_PLACEMENT_3D ( 'NONE', #90, #295, #119 ) ;
#38 = DIRECTION ( 'NONE',  ( -3.491481338843133355E-15, 1.224646799147353207E-16, -1.000000000000000000 ) ) ;
#39 = DATE_AND_TIME ( #203, #66 ) ;
#40 = APPROVAL_ROLE ( '' ) ;
#41 = CARTESIAN_POINT ( 'NONE',  ( 2.793185071074506684E-14, -9.797174393178825657E-16, 8.000000000000000000 ) ) ;
#42 = DATE_TIME_ROLE ( 'creation_date' ) ;
#43 = FACE_OUTER_BOUND ( 'NONE', #48, .T. ) ;
#44 = CONICAL_SURFACE ( 'NONE', #318, 0.3999999999999999667, 0.7853981633974512766 ) ;
#45 = DIRECTION ( 'NONE',  ( -3.491481338843133355E-15, 1.224646799147353207E-16, -1.000000000000000000 ) ) ;
#46 = ORIENTED_EDGE ( 'NONE', *, *, #245, .T. ) ;
#47 = COORDINATED_UNIVERSAL_TIME_OFFSET ( 1, 0, .AHEAD. ) ;
#48 = EDGE_LOOP ( 'NONE', ( #150, #88, #288, #111 ) ) ;
#49 =( NAMED_UNIT ( * ) SI_UNIT ( $, .STERADIAN. ) SOLID_ANGLE_UNIT ( ) );
#50 = AXIS2_PLACEMENT_3D ( 'NONE', #41, #177, #77 ) ;
#51 = CARTESIAN_POINT ( 'NONE',  ( 0.0000000000000000000, 0.0000000000000000000, 0.0000000000000000000 ) ) ;
#52 = EDGE_LOOP ( 'NONE', ( #101, #223, #293, #234 ) ) ;
#53 = ORIENTED_EDGE ( 'NONE', *, *, #55, .F. ) ;
#54 = AXIS2_PLACEMENT_3D ( 'NONE', #51, #93, #110 ) ;
#55 = EDGE_CURVE ( 'NONE', #25, #129, #332, .T. ) ;
#56 = EDGE_LOOP ( 'NONE', ( #209, #109, #53, #202 ) ) ;
#57 = DIRECTION ( 'NONE',  ( -3.491481338843133355E-15, 1.224646799147353207E-16, -1.000000000000000000 ) ) ;
#58 =( LENGTH_UNIT ( ) NAMED_UNIT ( * ) SI_UNIT ( .MILLI., .METRE. ) );
#59 = CARTESIAN_POINT ( 'NONE',  ( 2.793185071074506684E-14, 0.5999999999999963141, 8.000000000000000000 ) ) ;
#60 = AXIS2_PLACEMENT_3D ( 'NONE', #239, #133, #161 ) ;
#61 = DIRECTION ( 'NONE',  ( 0.0000000000000000000, 1.000000000000000000, 0.0000000000000000000 ) ) ;
#62 = APPLICATION_PROTOCOL_DEFINITION ( 'international standard', 'config_control_design', 1994, #19 ) ;
#63 = LINE ( 'NONE', #238, #228 ) ;
#64 = DIRECTION ( 'NONE',  ( 4.275831445896959482E-31, 1.000000000000000000, 1.224646799147353207E-16 ) ) ;
#65 = AXIS2_PLACEMENT_3D ( 'NONE', #297, #11, #30 ) ;
#66 = LOCAL_TIME ( 9, 21, 37.00000000000000000, #20 ) ;
#67 = EDGE_CURVE ( 'NONE', #131, #253, #178, .T. ) ;
#68 = LINE ( 'NONE', #171, #278 ) ;
#69 = DIRECTION ( 'NONE',  ( 4.275831445896958607E-31, 1.000000000000000000, 1.224646799147353207E-16 ) ) ;
#70 = DIRECTION ( 'NONE',  ( -3.491481338843133355E-15, 1.224646799147353207E-16, -1.000000000000000000 ) ) ;
#71 = ADVANCED_FACE ( 'NONE', ( #10 ), #322, .T. ) ;
#72 = ADVANCED_FACE ( 'NONE', ( #165 ), #246, .T. ) ;
#73 = DIRECTION ( 'NONE',  ( 3.491481338843133355E-15, -1.224646799147353207E-16, 1.000000000000000000 ) ) ;
#74 = AXIS2_PLACEMENT_3D ( 'NONE', #146, #70, #251 ) ;
#75 = ORIENTED_EDGE ( 'NONE', *, *, #208, .T. ) ;
#76 = APPROVAL_DATE_TIME ( #16, #107 ) ;
#77 = DIRECTION ( 'NONE',  ( 0.0000000000000000000, 1.000000000000000000, 0.0000000000000000000 ) ) ;
#78 = CIRCLE ( 'NONE', #163, 0.5999999999999963141 ) ;
#79 = DIRECTION ( 'NONE',  ( -3.491481338843133355E-15, 1.224646799147353207E-16, -1.000000000000000000 ) ) ;
#80 = CARTESIAN_POINT ( 'NONE',  ( 1.047444401652940007E-13, -3.673940397442059178E-15, 30.00000000000000000 ) ) ;
#81 = CYLINDRICAL_SURFACE ( 'NONE', #201, 0.5999999999999985345 ) ;
#82 = CC_DESIGN_DATE_AND_TIME_ASSIGNMENT ( #39, #42, ( #244 ) ) ;
#83 = CARTESIAN_POINT ( 'NONE',  ( 0.0000000000000000000, 0.0000000000000000000, 0.0000000000000000000 ) ) ;
#84 = ORIENTED_EDGE ( 'NONE', *, *, #208, .F. ) ;
#85 = PRODUCT_RELATED_PRODUCT_CATEGORY ( 'detail', '', ( #98 ) ) ;
#86 = DIRECTION ( 'NONE',  ( 1.798245827342160317E-15, -0.8571673007021098911, 0.5150380749100582634 ) ) ;
#87 = ORIENTED_EDGE ( 'NONE', *, *, #287, .F. ) ;
#88 = ORIENTED_EDGE ( 'NONE', *, *, #287, .T. ) ;
#89 = PLANE ( 'NONE',  #205 ) ;
#90 = CARTESIAN_POINT ( 'NONE',  ( 2.793185071074506684E-14, 4.499279347985537244E-33, 8.000000000000000000 ) ) ;
#91 = AXIS2_PLACEMENT_3D ( 'NONE', #218, #33, #113 ) ;
#92 = APPROVAL_ROLE ( '' ) ;
#93 = DIRECTION ( 'NONE',  ( -3.491481338843133355E-15, 1.224646799147353207E-16, -1.000000000000000000 ) ) ;
#94 = CARTESIAN_POINT ( 'NONE',  ( 1.047444401652940007E-13, 0.3999999999999963030, 30.00000000000000000 ) ) ;
#95 = EDGE_CURVE ( 'NONE', #253, #131, #264, .T. ) ;
#96 = FACE_OUTER_BOUND ( 'NONE', #184, .T. ) ;
#97 = LINE ( 'NONE', #196, #32 ) ;
#98 = PRODUCT ( '260', '260', '', ( #303 ) ) ;
#99 = LOCAL_TIME ( 9, 21, 37.00000000000000000, #317 ) ;
#100 = PERSON_AND_ORGANIZATION ( #241, #248 ) ;
#101 = ORIENTED_EDGE ( 'NONE', *, *, #300, .F. ) ;
#102 = CLOSED_SHELL ( 'NONE', ( #314, #191, #260, #221, #71 ) ) ;
#103 = VECTOR ( 'NONE', #195, 1000.000000000000114 ) ;
#104 = CONICAL_SURFACE ( 'NONE', #259, 0.5999999999999963141, 1.029744258676649649 ) ;
#105 = EDGE_LOOP ( 'NONE', ( #185, #27 ) ) ;
#106 = EDGE_CURVE ( 'NONE', #334, #337, #120, .T. ) ;
#107 = APPROVAL ( #128, 'UNSPECIFIED' ) ;
#108 = ORIENTED_EDGE ( 'NONE', *, *, #67, .T. ) ;
#109 = ORIENTED_EDGE ( 'NONE', *, *, #300, .T. ) ;
#110 = DIRECTION ( 'NONE',  ( 4.275831445896958607E-31, 1.000000000000000000, 1.224646799147353207E-16 ) ) ;
#111 = ORIENTED_EDGE ( 'NONE', *, *, #67, .F. ) ;
#112 = PRODUCT_DEFINITION_FORMATION_WITH_SPECIFIED_SOURCE ( 'ANY', '', #98, .NOT_KNOWN. ) ;
#113 = DIRECTION ( 'NONE',  ( -4.275831445896958607E-31, -1.000000000000000000, -1.224646799147353207E-16 ) ) ;
#114 = CARTESIAN_POINT ( 'NONE',  ( 6.606247611208390121E-14, -0.6000000000000036415, 29.80000000000000071 ) ) ;
#115 = PERSON_AND_ORGANIZATION ( #241, #248 ) ;
#116 = DIRECTION ( 'NONE',  ( -3.491481338843133355E-15, 1.224646799147353207E-16, -1.000000000000000000 ) ) ;
#117 = AXIS2_PLACEMENT_3D ( 'NONE', #233, #156, #174 ) ;
#118 = DIRECTION ( 'NONE',  ( -3.491481338843133355E-15, 1.224646799147353207E-16, -1.000000000000000000 ) ) ;
#119 = DIRECTION ( 'NONE',  ( -4.275831445896958607E-31, -1.000000000000000000, -1.224646799147353207E-16 ) ) ;
#120 = CIRCLE ( 'NONE', #212, 0.3999999999999999667 ) ;
#121 = ORIENTED_EDGE ( 'NONE', *, *, #28, .F. ) ;
#122 =( NAMED_UNIT ( * ) PLANE_ANGLE_UNIT ( ) SI_UNIT ( $, .RADIAN. ) );
#123 = CALENDAR_DATE ( 2021, 3, 9 ) ;
#124 =( GEOMETRIC_REPRESENTATION_CONTEXT ( 3 ) GLOBAL_UNCERTAINTY_ASSIGNED_CONTEXT ( ( #210 ) ) GLOBAL_UNIT_ASSIGNED_CONTEXT ( ( #58, #122, #49 ) ) REPRESENTATION_CONTEXT ( 'NONE', 'WORKASPACE' ) );
#125 = SECURITY_CLASSIFICATION_LEVEL ( 'unclassified' ) ;
#126 = ORIENTED_EDGE ( 'NONE', *, *, #28, .T. ) ;
#127 = EDGE_CURVE ( 'NONE', #131, #158, #326, .T. ) ;
#128 = APPROVAL_STATUS ( 'not_yet_approved' ) ;
#129 = VERTEX_POINT ( 'NONE', #168 ) ;
#130 = PERSON_AND_ORGANIZATION_ROLE ( 'classification_officer' ) ;
#131 = VERTEX_POINT ( 'NONE', #114 ) ;
#132 = ORIENTED_EDGE ( 'NONE', *, *, #330, .T. ) ;
#133 = DIRECTION ( 'NONE',  ( 0.0000000000000000000, 0.0000000000000000000, 1.000000000000000000 ) ) ;
#134 = DIRECTION ( 'NONE',  ( 0.0000000000000000000, 1.000000000000000000, 0.0000000000000000000 ) ) ;
#135 = LOCAL_TIME ( 9, 21, 37.00000000000000000, #225 ) ;
#136 = DIRECTION ( 'NONE',  ( -3.491481338843133355E-15, 1.224646799147353207E-16, -1.000000000000000000 ) ) ;
#137 = PERSON_AND_ORGANIZATION ( #241, #248 ) ;
#138 = CARTESIAN_POINT ( 'NONE',  ( 1.258736183148282062E-15, -4.415052202954814819E-17, 0.3605163714165379174 ) ) ;
#139 = EDGE_CURVE ( 'NONE', #129, #25, #78, .T. ) ;
#140 = ADVANCED_FACE ( 'NONE', ( #96 ), #237, .F. ) ;
#141 = DIRECTION ( 'NONE',  ( 3.491481338843133355E-15, -1.224646799147353207E-16, 1.000000000000000000 ) ) ;
#142 = VECTOR ( 'NONE', #45, 1000.000000000000000 ) ;
#143 = CYLINDRICAL_SURFACE ( 'NONE', #292, 0.5999999999999967581 ) ;
#144 = DIRECTION ( 'NONE',  ( -3.491481338843133355E-15, 1.224646799147353207E-16, -1.000000000000000000 ) ) ;
#145 = APPROVAL_DATE_TIME ( #254, #231 ) ;
#146 = CARTESIAN_POINT ( 'NONE',  ( 1.047444401652940007E-13, -3.673940397442059178E-15, 30.00000000000000000 ) ) ;
#147 = CONICAL_SURFACE ( 'NONE', #117, 0.3999999999999999667, 0.7853981633974512766 ) ;
#148 = CARTESIAN_POINT ( 'NONE',  ( 2.793185071074506684E-14, 0.5999999999999963141, 8.000000000000000000 ) ) ;
#149 = ORIENTED_EDGE ( 'NONE', *, *, #127, .T. ) ;
#150 = ORIENTED_EDGE ( 'NONE', *, *, #152, .F. ) ;
#151 = CC_DESIGN_PERSON_AND_ORGANIZATION_ASSIGNMENT ( #312, #333, ( #112 ) ) ;
#152 = EDGE_CURVE ( 'NONE', #337, #131, #263, .T. ) ;
#153 = CIRCLE ( 'NONE', #50, 0.5999999999999972022 ) ;
#154 = DATE_TIME_ROLE ( 'classification_date' ) ;
#155 = EDGE_LOOP ( 'NONE', ( #29, #149, #121, #84 ) ) ;
#156 = DIRECTION ( 'NONE',  ( -3.491481338843133355E-15, 1.224646799147353207E-16, -1.000000000000000000 ) ) ;
#157 = VERTEX_POINT ( 'NONE', #4 ) ;
#158 = VERTEX_POINT ( 'NONE', #214 ) ;
#159 = DESIGN_CONTEXT ( 'detailed design', #19, 'design' ) ;
#160 = DIRECTION ( 'NONE',  ( 3.209883240645412940E-31, 1.000000000000000000, 9.035018104045926161E-17 ) ) ;
#161 = DIRECTION ( 'NONE',  ( 1.000000000000000000, 0.0000000000000000000, 0.0000000000000000000 ) ) ;
#162 = CARTESIAN_POINT ( 'NONE',  ( 2.793185071074506684E-14, -9.797174393178825657E-16, 8.000000000000000000 ) ) ;
#163 = AXIS2_PLACEMENT_3D ( 'NONE', #138, #294, #160 ) ;
#164 = EDGE_CURVE ( 'NONE', #24, #257, #14, .T. ) ;
#165 = FACE_OUTER_BOUND ( 'NONE', #155, .T. ) ;
#166 = APPROVAL_DATE_TIME ( #35, #258 ) ;
#167 = CARTESIAN_POINT ( 'NONE',  ( 0.0000000000000000000, 0.0000000000000000000, 0.0000000000000000000 ) ) ;
#168 = CARTESIAN_POINT ( 'NONE',  ( 1.258736183148281864E-15, -0.5999999999999963141, 0.3605163714165378619 ) ) ;
#169 = CIRCLE ( 'NONE', #21, 0.5999999999999972022 ) ;
#170 = LOCAL_TIME ( 9, 21, 37.00000000000000000, #193 ) ;
#171 = CARTESIAN_POINT ( 'NONE',  ( 2.565498867538169208E-31, 0.5999999999999985345, 7.347880794884101740E-17 ) ) ;
#172 = APPROVAL_ROLE ( '' ) ;
#173 = CARTESIAN_POINT ( 'NONE',  ( 1.258736183148282062E-15, -4.415052202954814819E-17, 0.3605163714165379174 ) ) ;
#174 = DIRECTION ( 'NONE',  ( 0.0000000000000000000, 1.000000000000000000, 0.0000000000000000000 ) ) ;
#175 = ADVANCED_FACE ( 'NONE', ( #8 ), #89, .F. ) ;
#176 = EDGE_LOOP ( 'NONE', ( #291, #108, #75, #328 ) ) ;
#177 = DIRECTION ( 'NONE',  ( -3.491481338843133355E-15, 1.224646799147353207E-16, -1.000000000000000000 ) ) ;
#178 = CIRCLE ( 'NONE', #22, 0.5999999999999999778 ) ;
#179 = PERSON_AND_ORGANIZATION ( #241, #248 ) ;
#180 = CYLINDRICAL_SURFACE ( 'NONE', #54, 0.5999999999999967581 ) ;
#181 = DIRECTION ( 'NONE',  ( -3.491481338843133355E-15, 1.224646799147353207E-16, -1.000000000000000000 ) ) ;
#182 = ADVANCED_BREP_SHAPE_REPRESENTATION ( '260', ( #286, #279, #60 ), #124 ) ;
#183 = DIRECTION ( 'NONE',  ( 4.275831445896959482E-31, 1.000000000000000000, 1.224646799147353207E-16 ) ) ;
#184 = EDGE_LOOP ( 'NONE', ( #126, #46 ) ) ;
#185 = ORIENTED_EDGE ( 'NONE', *, *, #164, .F. ) ;
#186 = EDGE_CURVE ( 'NONE', #24, #25, #63, .T. ) ;
#187 = CARTESIAN_POINT ( 'NONE',  ( 2.793185071074506684E-14, -9.797174393178825657E-16, 8.000000000000000000 ) ) ;
#188 = CARTESIAN_POINT ( 'NONE',  ( 1.047444401652940007E-13, 2.999519565323659793E-33, 30.00000000000000000 ) ) ;
#189 = EDGE_CURVE ( 'NONE', #334, #253, #324, .T. ) ;
#190 = CC_DESIGN_APPROVAL ( #258, ( #244 ) ) ;
#191 = ADVANCED_FACE ( 'NONE', ( #270 ), #104, .T. ) ;
#192 = CARTESIAN_POINT ( 'NONE',  ( 1.040461438975253740E-13, -3.649447461459112464E-15, 29.80000000000000071 ) ) ;
#193 = COORDINATED_UNIVERSAL_TIME_OFFSET ( 1, 0, .AHEAD. ) ;
#194 = DIRECTION ( 'NONE',  ( 0.0000000000000000000, 1.000000000000000000, 0.0000000000000000000 ) ) ;
#195 = DIRECTION ( 'NONE',  ( -2.382254525458708792E-15, -0.7071067811865495711, -0.7071067811865455743 ) ) ;
#196 = CARTESIAN_POINT ( 'NONE',  ( 1.332214991097122993E-15, 0.5999999999999963141, 0.3605163714165379729 ) ) ;
#197 = CC_DESIGN_APPROVAL ( #231, ( #112 ) ) ;
#198 = APPROVAL_STATUS ( 'not_yet_approved' ) ;
#199 = CARTESIAN_POINT ( 'NONE',  ( 1.466877225489549793E-14, -0.5999999999999982014, 8.000000000000000000 ) ) ;
#200 = CC_DESIGN_PERSON_AND_ORGANIZATION_ASSIGNMENT ( #306, #220, ( #244 ) ) ;
#201 = AXIS2_PLACEMENT_3D ( 'NONE', #83, #229, #183 ) ;
#202 = ORIENTED_EDGE ( 'NONE', *, *, #186, .F. ) ;
#203 = CALENDAR_DATE ( 2021, 3, 9 ) ;
#204 = DATE_AND_TIME ( #226, #99 ) ;
#205 = AXIS2_PLACEMENT_3D ( 'NONE', #188, #136, #217 ) ;
#206 = LINE ( 'NONE', #280, #142 ) ;
#207 = ORIENTED_EDGE ( 'NONE', *, *, #95, .F. ) ;
#208 = EDGE_CURVE ( 'NONE', #253, #310, #68, .T. ) ;
#209 = ORIENTED_EDGE ( 'NONE', *, *, #164, .T. ) ;
#210 = UNCERTAINTY_MEASURE_WITH_UNIT (LENGTH_MEASURE( 1.000000000000000082E-05 ), #58, 'distance_accuracy_value', 'NONE');
#211 = EDGE_CURVE ( 'NONE', #157, #25, #97, .T. ) ;
#212 = AXIS2_PLACEMENT_3D ( 'NONE', #268, #219, #134 ) ;
#213 = EDGE_LOOP ( 'NONE', ( #282, #132, #315 ) ) ;
#214 = CARTESIAN_POINT ( 'NONE',  ( 6.606247611208401480E-14, -0.5999999999999982014, 8.000000000000000000 ) ) ;
#215 = DIRECTION ( 'NONE',  ( 0.0000000000000000000, 1.000000000000000000, 0.0000000000000000000 ) ) ;
#216 = APPROVAL_STATUS ( 'not_yet_approved' ) ;
#217 = DIRECTION ( 'NONE',  ( 4.275831445896958607E-31, 1.000000000000000000, 1.224646799147353207E-16 ) ) ;
#218 = CARTESIAN_POINT ( 'NONE',  ( 2.793185071074506684E-14, 4.499279347985537244E-33, 8.000000000000000000 ) ) ;
#219 = DIRECTION ( 'NONE',  ( -3.491481338843133355E-15, 1.224646799147353207E-16, -1.000000000000000000 ) ) ;
#220 = PERSON_AND_ORGANIZATION_ROLE ( 'creator' ) ;
#221 = ADVANCED_FACE ( 'NONE', ( #267 ), #143, .T. ) ;
#222 = CC_DESIGN_DATE_AND_TIME_ASSIGNMENT ( #204, #154, ( #236 ) ) ;
#223 = ORIENTED_EDGE ( 'NONE', *, *, #311, .T. ) ;
#224 = AXIS2_PLACEMENT_3D ( 'NONE', #173, #73, #307 ) ;
#225 = COORDINATED_UNIVERSAL_TIME_OFFSET ( 1, 0, .AHEAD. ) ;
#226 = CALENDAR_DATE ( 2021, 3, 9 ) ;
#227 = ORIENTED_EDGE ( 'NONE', *, *, #152, .T. ) ;
#228 = VECTOR ( 'NONE', #302, 1000.000000000000000 ) ;
#229 = DIRECTION ( 'NONE',  ( -3.491481338843133355E-15, 1.224646799147353207E-16, -1.000000000000000000 ) ) ;
#230 = ORIENTED_EDGE ( 'NONE', *, *, #330, .F. ) ;
#231 = APPROVAL ( #198, 'UNSPECIFIED' ) ;
#232 = CC_DESIGN_PERSON_AND_ORGANIZATION_ASSIGNMENT ( #15, #250, ( #112 ) ) ;
#233 = CARTESIAN_POINT ( 'NONE',  ( 1.047444401652940007E-13, -3.673940397442059178E-15, 30.00000000000000000 ) ) ;
#234 = ORIENTED_EDGE ( 'NONE', *, *, #139, .F. ) ;
#235 = ORIENTED_EDGE ( 'NONE', *, *, #55, .T. ) ;
#236 = SECURITY_CLASSIFICATION ( '', '', #125 ) ;
#237 = PLANE ( 'NONE',  #91 ) ;
#238 = CARTESIAN_POINT ( 'NONE',  ( 2.565498867538161326E-31, 0.5999999999999967581, 7.347880794884079553E-17 ) ) ;
#239 = CARTESIAN_POINT ( 'NONE',  ( 0.0000000000000000000, 0.0000000000000000000, 0.0000000000000000000 ) ) ;
#240 = CARTESIAN_POINT ( 'NONE',  ( 1.047934260372598846E-13, -0.4000000000000036304, 30.00000000000000000 ) ) ;
#241 = PERSON ( 'UNSPECIFIED', 'UNSPECIFIED', 'UNSPECIFIED', ('UNSPECIFIED'), ('UNSPECIFIED'), ('UNSPECIFIED') ) ;
#242 = VECTOR ( 'NONE', #301, 1000.000000000000000 ) ;
#243 = DIRECTION ( 'NONE',  ( -3.209883240645412940E-31, -1.000000000000000000, -9.035018104045926161E-17 ) ) ;
#244 = PRODUCT_DEFINITION ( 'UNKNOWN', '', #112, #159 ) ;
#245 = EDGE_CURVE ( 'NONE', #158, #310, #153, .T. ) ;
#246 = CYLINDRICAL_SURFACE ( 'NONE', #309, 0.5999999999999985345 ) ;
#247 = CARTESIAN_POINT ( 'NONE',  ( 0.0000000000000000000, 0.0000000000000000000, 0.0000000000000000000 ) ) ;
#248 = ORGANIZATION ( 'UNSPECIFIED', 'UNSPECIFIED', '' ) ;
#249 = ADVANCED_FACE ( 'NONE', ( #284 ), #81, .T. ) ;
#250 = PERSON_AND_ORGANIZATION_ROLE ( 'creator' ) ;
#251 = DIRECTION ( 'NONE',  ( 0.0000000000000000000, 1.000000000000000000, 0.0000000000000000000 ) ) ;
#252 = CARTESIAN_POINT ( 'NONE',  ( 2.793185071074506684E-14, -9.797174393178825657E-16, 8.000000000000000000 ) ) ;
#253 = VERTEX_POINT ( 'NONE', #331 ) ;
#254 = DATE_AND_TIME ( #277, #3 ) ;
#255 = CIRCLE ( 'NONE', #13, 0.5999999999999972022 ) ;
#256 = ORIENTED_EDGE ( 'NONE', *, *, #211, .T. ) ;
#257 = VERTEX_POINT ( 'NONE', #199 ) ;
#258 = APPROVAL ( #216, 'UNSPECIFIED' ) ;
#259 = AXIS2_PLACEMENT_3D ( 'NONE', #36, #141, #243 ) ;
#260 = ADVANCED_FACE ( 'NONE', ( #290 ), #26, .T. ) ;
#261 = SHAPE_DEFINITION_REPRESENTATION ( #272, #182 ) ;
#262 = ORIENTED_EDGE ( 'NONE', *, *, #189, .F. ) ;
#263 = LINE ( 'NONE', #240, #103 ) ;
#264 = CIRCLE ( 'NONE', #323, 0.5999999999999999778 ) ;
#265 = CC_DESIGN_SECURITY_CLASSIFICATION ( #236, ( #112 ) ) ;
#266 = CARTESIAN_POINT ( 'NONE',  ( 1.332214991097122993E-15, 0.5999999999999963141, 0.3605163714165379729 ) ) ;
#267 = FACE_OUTER_BOUND ( 'NONE', #52, .T. ) ;
#268 = CARTESIAN_POINT ( 'NONE',  ( 1.047444401652940007E-13, -3.673940397442059178E-15, 30.00000000000000000 ) ) ;
#269 = CARTESIAN_POINT ( 'NONE',  ( 1.258736183148281864E-15, -0.5999999999999963141, 0.3605163714165378619 ) ) ;
#270 = FACE_OUTER_BOUND ( 'NONE', #316, .T. ) ;
#271 = ADVANCED_FACE ( 'NONE', ( #43 ), #147, .T. ) ;
#272 = PRODUCT_DEFINITION_SHAPE ( 'NONE', 'NONE',  #244 ) ;
#273 = CLOSED_SHELL ( 'NONE', ( #2, #72, #140, #249, #271, #175 ) ) ;
#274 = VECTOR ( 'NONE', #5, 1000.000000000000114 ) ;
#275 = CARTESIAN_POINT ( 'NONE',  ( 1.040461438975253740E-13, -3.649447461459112464E-15, 29.80000000000000071 ) ) ;
#276 = DIRECTION ( 'NONE',  ( -3.491481338843133355E-15, 1.224646799147353207E-16, -1.000000000000000000 ) ) ;
#277 = CALENDAR_DATE ( 2021, 3, 9 ) ;
#278 = VECTOR ( 'NONE', #276, 1000.000000000000000 ) ;
#279 = MANIFOLD_SOLID_BREP ( 'Corps-Déplacer/Copier1[2]', #102 ) ;
#280 = CARTESIAN_POINT ( 'NONE',  ( 7.347880794884054902E-17, -0.5999999999999967581, -7.347880794884105438E-17 ) ) ;
#281 = FACE_OUTER_BOUND ( 'NONE', #336, .T. ) ;
#282 = ORIENTED_EDGE ( 'NONE', *, *, #211, .F. ) ;
#283 = APPROVAL_PERSON_ORGANIZATION ( #179, #107, #40 ) ;
#284 = FACE_OUTER_BOUND ( 'NONE', #176, .T. ) ;
#285 = FACE_OUTER_BOUND ( 'NONE', #56, .T. ) ;
#286 = MANIFOLD_SOLID_BREP ( 'Corps-Déplacer/Copier1[1]', #273 ) ;
#287 = EDGE_CURVE ( 'NONE', #337, #334, #9, .T. ) ;
#288 = ORIENTED_EDGE ( 'NONE', *, *, #189, .T. ) ;
#289 = CC_DESIGN_PERSON_AND_ORGANIZATION_ASSIGNMENT ( #23, #130, ( #236 ) ) ;
#290 = FACE_OUTER_BOUND ( 'NONE', #213, .T. ) ;
#291 = ORIENTED_EDGE ( 'NONE', *, *, #127, .F. ) ;
#292 = AXIS2_PLACEMENT_3D ( 'NONE', #247, #308, #69 ) ;
#293 = ORIENTED_EDGE ( 'NONE', *, *, #186, .T. ) ;
#294 = DIRECTION ( 'NONE',  ( -3.491481338843133355E-15, 1.224646799147353207E-16, -1.000000000000000000 ) ) ;
#295 = DIRECTION ( 'NONE',  ( 3.491481338843133355E-15, -1.224646799147353207E-16, 1.000000000000000000 ) ) ;
#296 = CARTESIAN_POINT ( 'NONE',  ( 1.047444401652940007E-13, 0.3999999999999963030, 30.00000000000000000 ) ) ;
#297 = CARTESIAN_POINT ( 'NONE',  ( 1.258736183148282062E-15, -4.415052202954814819E-17, 0.3605163714165379174 ) ) ;
#298 = CALENDAR_DATE ( 2021, 3, 9 ) ;
#299 = LINE ( 'NONE', #269, #329 ) ;
#300 = EDGE_CURVE ( 'NONE', #257, #129, #206, .T. ) ;
#301 = DIRECTION ( 'NONE',  ( -3.491481338843133355E-15, 1.224646799147353207E-16, -1.000000000000000000 ) ) ;
#302 = DIRECTION ( 'NONE',  ( -3.491481338843133355E-15, 1.224646799147353207E-16, -1.000000000000000000 ) ) ;
#303 = MECHANICAL_CONTEXT ( 'NONE', #12, 'mechanical' ) ;
#304 = APPROVAL_PERSON_ORGANIZATION ( #100, #231, #172 ) ;
#305 = DIRECTION ( 'NONE',  ( 1.903218546456022717E-15, 0.8571673007021097801, 0.5150380749100585964 ) ) ;
#306 = PERSON_AND_ORGANIZATION ( #241, #248 ) ;
#307 = DIRECTION ( 'NONE',  ( -3.209883240645412940E-31, -1.000000000000000000, -9.035018104045926161E-17 ) ) ;
#308 = DIRECTION ( 'NONE',  ( -3.491481338843133355E-15, 1.224646799147353207E-16, -1.000000000000000000 ) ) ;
#309 = AXIS2_PLACEMENT_3D ( 'NONE', #167, #57, #64 ) ;
#310 = VERTEX_POINT ( 'NONE', #148 ) ;
#311 = EDGE_CURVE ( 'NONE', #257, #24, #255, .T. ) ;
#312 = PERSON_AND_ORGANIZATION ( #241, #248 ) ;
#313 = AXIS2_PLACEMENT_3D ( 'NONE', #162, #116, #321 ) ;
#314 = ADVANCED_FACE ( 'NONE', ( #285 ), #180, .T. ) ;
#315 = ORIENTED_EDGE ( 'NONE', *, *, #139, .T. ) ;
#316 = EDGE_LOOP ( 'NONE', ( #230, #256, #235 ) ) ;
#317 = COORDINATED_UNIVERSAL_TIME_OFFSET ( 1, 0, .AHEAD. ) ;
#318 = AXIS2_PLACEMENT_3D ( 'NONE', #80, #181, #325 ) ;
#319 = CARTESIAN_POINT ( 'NONE',  ( 1.044565243713670612E-13, -0.4000000000000036304, 30.00000000000000000 ) ) ;
#320 = ORIENTED_EDGE ( 'NONE', *, *, #106, .F. ) ;
#321 = DIRECTION ( 'NONE',  ( 0.0000000000000000000, 1.000000000000000000, 0.0000000000000000000 ) ) ;
#322 = PLANE ( 'NONE',  #37 ) ;
#323 = AXIS2_PLACEMENT_3D ( 'NONE', #192, #118, #194 ) ;
#324 = LINE ( 'NONE', #94, #274 ) ;
#325 = DIRECTION ( 'NONE',  ( 0.0000000000000000000, 1.000000000000000000, 0.0000000000000000000 ) ) ;
#326 = LINE ( 'NONE', #34, #242 ) ;
#327 = CC_DESIGN_APPROVAL ( #107, ( #236 ) ) ;
#328 = ORIENTED_EDGE ( 'NONE', *, *, #245, .F. ) ;
#329 = VECTOR ( 'NONE', #86, 1000.000000000000000 ) ;
#330 = EDGE_CURVE ( 'NONE', #157, #129, #299, .T. ) ;
#331 = CARTESIAN_POINT ( 'NONE',  ( 1.040461438975253740E-13, 0.5999999999999963141, 29.80000000000000071 ) ) ;
#332 = CIRCLE ( 'NONE', #65, 0.5999999999999963141 ) ;
#333 = PERSON_AND_ORGANIZATION_ROLE ( 'design_supplier' ) ;
#334 = VERTEX_POINT ( 'NONE', #296 ) ;
#335 = APPROVAL_PERSON_ORGANIZATION ( #115, #258, #92 ) ;
#336 = EDGE_LOOP ( 'NONE', ( #1, #227, #207, #262 ) ) ;
#337 = VERTEX_POINT ( 'NONE', #319 ) ;
ENDSEC;
END-ISO-10303-21;
